Misc Computer Games

Prince Of Persia Warrior Within - Conflict At The Entrance

Misc Computer Games

bass

by  VICTBORGES

save to print version add songbook text version e-mail correct tuner
chordsukulelecavacokeyboardtabbassdrumsharmonicaflute Guitar Pro
close

there isn't a video lesson for this song

chords

Prince Of Persia Warrior Within - Conflict At The Entrance

	  		Composer: Stuart Chatwood 


Intro / Main Riff 
G |-----------------------------------------------------------------------------------------------------| 
D |-----------------------------------------------------------------------------------------------------| 
A |-----------------------------------------------------------------------------------------------------| 
D |-8--7--8--7--8--7--3-3-3-3-2-2-2-/-8--7--8--7--8--7--3-3-3-3-2-2-2-/-8--7--8--7--8--7--3-3-3-3-2-2-2-| 

G |---------------------------------| 
D |---------------------------------| 
A |---------------------------------| 
D |3--2--3--2--3--2-3-2-3-5-3-2-0-2-| 

00:32 
G |---------------------------------------------------------------------------------| 
D |---------------------------------------------------------------------------------| 
A |---------------------------------------------------------------------------------| 
D |-8--7------8--8-8--7------3-2-3--8--7------3--2------3-2-3-5-3-2-0-2-------------| x2 

01:00 
G |-------------------------------------------------------------------| 
D |-------------------------------------------------------------------| 
A |-------------------------------------------------------------------| 
D |-7-7-7-7-7-7-7-8-8-8-8-8-8-8-7-7-7-7-7-7-7-8-8-8-8-8-8-8-7-7-7-7-7-| 

G |--------------------------------------------| 
D |--------------------------------------------| 
A |--------------------------------------------| 
D |-8-8-8-8-8-8-8--7-7-7-7-7-7-7-8-8-8-8-8-8-8-| 

01:14 
G |------------------------------------------------------------------------------| 
D |------------------------------------------------------------------------------| 
A |------------------------------------------------------------------------------| 
D |-3-3-3--2-2-2--3-3-3--2-2-2------3-3-3--2-2-2--3-3-3--2-2-2------3-3-3--2-2-2-| 

G |----------------------------------------------------------| 
D |----------------------------------------------------------| 
A |----------------------------------------------------------| 
D |-3-3-3--2-2-2-2-2-2-2--3-3-3--2-2-2--3-3-3--2-2-2-2-2-2-2-| 

01:28 
G |------------------------------------------------------------------| 
D |------------------------------------------------------------------| 
A |------------------------------------------------------------------| 
D |-7-7-7-8-8-8-5-5-5-8-8-8-5-5-8-8--7-7-7-8-8-8-5-5-5-8-8-8-5-5-8-8-| x2 

Begin from start. 

/ - Slide 
		  

Full key step upFull key step up
Half key step upHalf key step up
Half key step downHalf key step down
Full key step downFull key step down
hide glossary

See also:

bass Misc Computer Games - Kingdom Hearts - Dearly Beloved bass Misc Computer Games - Pokémon - Redblue Opening bass Misc Computer Games - F-zero X - Big Blue bass Pepper - Use Me bass Misc Computer Games - Deltarune - Empty Town bass Misc Computer Games - Dr Mario Theme
e-chords

Other versions:

bass Misc Computer Games - Prince Of Persia Warrior Within - Conflict At The Entrance
auto scroll beats size up size down change color hide chords drawings
tab show chords e-chords YouTube Clip e-chords hide all tabs e-chords go to top tab

share