Misc Computer Games

home > Misc Computer Game...

Nintendo - Eponas Song Bass Tab

Misc Computer Games

Difficulty: nolevelnolevel

by hugo%5Frodrigues

tuner correct add songbook print version text version save to e-mail
chordsukulelecavacokeyboardtabbassdrumsharmonicsflute Guitar Pro
chords

Nintendo - Eponas Song

  		
Whole Song 
G|-7-------7-------7-----------| 
D|---9-7-----9-7-----9-7--9-7--| 
A|-----------------------------| 
E|-----------------------------| 

G|-----------7---7-9-7~--| 
D|-------7-9-------------| 
A|-9-8-9-----------------| 
E|-----------------------| 
 
	  

Search Paypal
auto scroll beats size up size down change color hide chords drawings
tab show chords e-chords YouTube Clip e-chords hide all tabs e-chords go to top tab