Misc Computer Games

Kingdom Hearts - Dearly Beloved

Misc Computer Games

bass

by  FERNSANTANA

save to print version add songbook text version e-mail correct tuner
chordsukulelecavacokeyboardtabbassdrumsharmonicaflute Guitar Pro
close

there isn't a video lesson for this song

chords

Kingdom Hearts - Dearly Beloved

	  		Intro 

A|--3----3--0----0----------5----5--3----3--0----0----------5----------------| 
E|------------------3----3--------------------------3----3-------------------| 
C|---------------------------------------------------------------------------| 
G|---------------------------------------------------------------------------| 

A|--5--6----6--5----5--10----10--8----8--6----6--5----5--3----3--1-----------| 
E|---------------------------------------------------------------------------| 
C|---------------------------------------------------------------------------| 
G|---------------------------------------------------------------------------| 


verse 1 

A|--1--3----3--0----0----------5----5--3----3--0----0----------5-------------| 
E|---------------------3----3--------------------------3----3----------------| 
C|---------------------------------------------------------------------------| 
G|---------------------------------------------------------------------------| 

A|--5--6----6--5----5--10----10--8----8--6----6--5----5--3----3--1-----------| 
E|---------------------------------------------------------------------------| 
C|---------------------------------------------------------------------------| 
G|---------------------------------------------------------------------------| 


Chorus 

A|--3----5--1--3--10----8--10----10--12--10--8--10----8----------------------| 
E|---------------------------------------------------------------------------| 
C|---------------------------------------------------------------------------| 
G|---------------------------------------------------------------------------| 

A|--3----5--1--3--10----8--10----10--12--10--8--10----8----------------------| 
E|---------------------------------------------------------------------------| 
C|---------------------------------------------------------------------------| 
G|---------------------------------------------------------------------------| 


verse 2 

A|--1--3----3--0----0----------5----5--3----3--0----0----------5-------------| 
E|---------------------3----3--------------------------3----3----------------| 
C|---------------------------------------------------------------------------| 
G|---------------------------------------------------------------------------| 

A|--5--6----6--5----5--10----10--8----8--6----6--5----5--3----3--1-----------| 
E|---------------------------------------------------------------------------| 
C|---------------------------------------------------------------------------| 
G|---------------------------------------------------------------------------| 


Chorus 

A|--3----5--1--3--10----8--10----10--12--10--8--10----8----------------------| 
E|---------------------------------------------------------------------------| 
C|---------------------------------------------------------------------------| 
G|---------------------------------------------------------------------------| 

A|--3----5--1--3--10----8--10----10--12--10--8--10----8----------------------| 
E|---------------------------------------------------------------------------| 
C|---------------------------------------------------------------------------| 
G|---------------------------------------------------------------------------| 
		  

See also:

bass Misc Computer Games - Kingdom Hearts - Dearly Beloved bass Misc Computer Games - Pokémon - Redblue Opening bass Misc Computer Games - F-zero X - Big Blue bass Pepper - Use Me bass Misc Computer Games - Deltarune - Empty Town bass Misc Computer Games - Dr Mario Theme
e-chords

Other versions:

bass Misc Computer Games - Kingdom Hearts - Dearly Beloved
auto scroll beats size up size down change color hide chords drawings
tab show chords e-chords YouTube Clip e-chords hide all tabs e-chords go to top tab

share