Misc Computer Games

Becalmed - Sea Of Theives

Misc Computer Games

bass

by  BRUNBLAZKOWSKI

save to print version add songbook text version e-mail correct tuner
chordsukulelecavacokeyboardtabbassdrumsharmonicaflute Guitar Pro
close

there isn't a video lesson for this song

chords

Becalmed - Sea Of Theives

	  		
Verse 

A|-----------0--3-1--0---0--3-1---0---0---------------0--3-5--3-0--3-5--3-0--------| 
E|-----0---------------------------------0-----0----0------------------------0-2~~-| 
C|--0--------------------------------------2~~---0---------------------------------| 
G|--------0------------0------------0----------------------------------------------| 

A|----0-1~-0~----------1--0--------| 
E|--2---------0----0~~-------0-2~~-| 
C|---------------2-----------------| 
G|---------------------------------| 

There's more to it but you rarely get that far before a galleon rams up your backend. 
Like and subscribe for more. 
		  

auto scroll beats size up size down change color hide chords drawings
tab show chords e-chords YouTube Clip e-chords hide all tabs e-chords go to top tab

share