Miles Davis

home > Miles Davis

Evasion De Julien Bass Tab

Miles Davis

Difficulty: nolevelnolevel

by IronPower4Ever

tuner correct add songbook print version text version save to e-mail
chordsukulelecavacokeyboardtabbassdrumsharmonicsflute Guitar Pro
chords

Evasion De Julien

  		
Verse 
G|----------------------------|----------------------------|-6---7---5----------| 
D|-----------------5---4---3--|---------------------5---8--|-------------5------| 
A|-----2---3---5--------------|-----------------5----------|-----------------8--| 
E|-5--------------------------|-5---6---7---8--------------|--------------------| 

G|----------------------------|----------------------------|--------------------| 
D|----------------------------|-5--------------------------|---------5---6---8--| 
A|-----------------5---6---8--|-----7---8---6---7----------|-----5--------------| 
E|-5---6---7---8--------------|---------------------6---4--|-5------------------| 

Outro 
G|----------------------------|--------------| 
D|-5-------------------8------|-6---5--------| 
A|-----8---5---------------7--|---------6----| 
E|-------------7---8----------|-------------3| 
	  

Search Paypal
auto scroll beats size up size down change color hide chords drawings
tab show chords e-chords YouTube Clip e-chords hide all tabs e-chords go to top tab