Micke Muster

Boogie Number One

Micke Muster

bass

by  SABRJOAO

save to print version add songbook text version e-mail correct tuner
chordsukulelecavacokeyboardtabbassdrumsharmonicaflute Guitar Pro
close

there isn't a video lesson for this song

chords

Boogie Number One

	  		

Intro:  
G|----------------------------------------------------------------------| 
D|----------------------------------------2---2---2---2---2---2---2---2-| 
A|--------------------------------------3---3---3---3---3---3---3---3---| 
E|-3--------3--------3---3---3--3--3--3---------------------------------| 

Verses 1 & 2: 
G|-------------------------------------2---2---2---2------------------| 
D|---2---2---2---2---2---2---2---2---3---3---3---3------2---2---2---2-| 
A|-3---3---3---3---3---3---3---3----------------------3---3---3---3---| 
E|--------------------------------------------------------------------| 

G|--------------------------------------| 
D|----------------------2---2-----------| 
A|---2---2----0---0---3---3---3---------| 
E|-3---3----1---1---------------3-3---3-| 

Interlude 1: 
G|---------------------------------------------------------------------| 
D|-------------------------------------7---7---7---7-------------------| 
A|---7---7---7---7---7---7---7---7---8---8---8---8------7---7---7---7--| 
E|-8---8---8---8---8---8---8---8----------------------8---8---8---8----| 

G|-------------------------------------------| 
D|----9----9----7---7------------------------| 
A|-10---10----8---8------7---7----10-10---10-| 
E|---------------------8---8---8-------------| 

Verses 3: 
G|-------------------------------------2---2---2---2------------------| 
D|---2---2---2---2---2---2---2---2---3---3---3---3------2---2---2---2-| 
A|-3---3---3---3---3---3---3---3----------------------3---3---3---3---| 
E|--------------------------------------------------------------------| 

G|-------------------------------------------| 
D|----9----9----7---7------------------------| 
A|-10---10----8---8------7---7----10-10---10-| 
E|---------------------8---8---8-------------| 

Interlude 2: 
G|---------------------------------------------------------------------| 
D|-------------------------------------7---7---7---7-------------------| 
A|---7---7---7---7---7---7---7---7---8---8---8---8------7---7---7---7--| 
E|-8---8---8---8---8---8---8---8----------------------8---8---8---8----| 

G|----------------------------------------------| 
D|----------------------------------------------| 
A|-10-10-10-10---8-8-8-8----7---7----10-10---10-| 
E|------------------------8---8---8-------------| 

Verses 4: 
G|-------------------------------------2---2---2---2------------------| 
D|---2---2---2---2---2---2---2---2---3---3---3---3------2---2---2---2-| 
A|-3---3---3---3---3---3---3---3----------------------3---3---3---3---| 
E|--------------------------------------------------------------------| 

G|-----------------------------------------| 
D|----9----9----7---7----------------------| 
A|-10---10----8---8------7---7-------------| 
E|---------------------8---8---8---5-5---5-| 

Verse 5: (Key Change) 
G|-------------------------------------4---4---4---4------------------| 
D|---4---4---4---4---4---4---4---4---5---5---5---5------4---4---4---4-| 
A|-5---5---5---5---5---5---5---5----------------------5---5---5---5---| 
E|--------------------------------------------------------------------| 

G|------------------------------------| 
D|----------------------4---4---4---4-| 
A|---4---4----2---2---5---5---5---5---| 
E|-5---5----3---3---------------------| 

Outro:                               (END) 
G|--------------------------------------| 
D|----------------------4---4-----------| 
A|---4---4----2---2---5---5---5----4--5-| 
E|-5---5----3---3-----------------------| 
		  

See also:

bass Deep Purple - Burn (ver. 2) bass Deep Purple - Smoke On The Water (ver. 3) bass Deep Purple - Strange kind of woman bass Deep Purple - Into The Fire bass Deep Purple - Burn Ver.(2) bass Deep Purple - Smoke On The Water
e-chords

Other versions:

bass Micke Muster - Boogie Number One
auto scroll beats size up size down change color hide chords drawings
tab show chords e-chords YouTube Clip e-chords hide all tabs e-chords go to top tab

share