Mf Doom

Pennyroyal

Mf Doom

bass

by  UBIRBOMFIM

save to print version add songbook text version e-mail correct tuner
chordsukulelecavacokeyboardtabbassdrumsharmonicaflute Guitar Pro
close

there isn't a video lesson for this song

chords

Pennyroyal

	  		G|--------| 
D|--------| 
A|-----11-| 
E|-9-9----| 


Verse 

   1  +  2  +  3  +  4  +    1  +  2  +  3  +  4  +   1 + 2 + 3 + 4 +   1 + 2 + 3 + 4 + 
G|-------------------------|-------9--10-11---------|-----------------|-----7-8-9-----r-| 
D|-------11----------------|----11------------------|-------9---------|---9-------9---e-| 
A|----11----11-------11-/9-|-------------------9\---|-----------9---7-|-------------7-s-| 
E|-9--------------9--------|------------------------|-7-----------7---|---------------t-| 

   1  +  2  +  3  +  4  +    1  +  2  +  3  +  4  +   1 + 2 + 3 + 4 +   1 + 2 + 3 + 4 + 
G|-------------------------|-------9--10-11---------|-----------------|-----7-8-9-----r-| 
D|-------11----------------|----11------------------|-------9---------|---9-------9---e-| 
A|----11----11-------11-/9-|-------------------9\---|-----------9---7-|-------------7-s-|  
E|-9--------------9--------|------------------------|-7-----------7---|---------------t-| 

   1  +  2  +  3  +  4  +    1  +  2  +  3  +  4  +   1 + 2 + 3 + 4 +   1 + 2 + 3 + 4 + 
G|-------------------------|-------9--10-11---------|-----------------|-----7-8-9-----r-| 
D|-------11----------------|----11------------------|-------9---------|---9-------9---e-| 
A|----11----11-------11-/9-|-------------------9\---|-----------9---7-|-------------7-s-|  
E|-9--------------9--------|------------------------|-7-----------7---|---------------t-| 

   1  +  2  +  3  +  4  +    1  +  2  +  3  +  4  +   1 + 2 + 3 + 4 +   1 + 2 + 3 + 4 + 
G|-------------------------|-------9--10-11---------|-----------------|-----7-8-9-----r-| 
D|-------11----------------|----11------------------|-------9---------|---9-------9---e-| 
A|----11----11-------11-/9-|-------------------9\---|-----------9---7-|-------------7-s-|  
E|-9--------------9--------|------------------------|-7-----------7---|---------------t-| 

   1  +  2  +  3  +  4  +    1  +  2  +  3  +  4  +   1 + 2 + 3 + 4 +   1 + 2 + 3 + 4 + 
G|-------------------------|-------9--10-11---------|-----------------|-----7-8-9-----r-| 
D|-------11----------------|----11------------------|-------9---------|---9-------9---e-| 
A|----11----11-------11-/9-|-------------------9\---|-----------9---7-|-------------7-s-| 
E|-9--------------9--------|------------------------|-7-----------7---|---------------t-| 

   1  +  2  +  3  +  4  +    1  +  2  +  3  +  4  +   1 + 2 + 3 + 4 +   1 + 2 + 3 + 4 + 
G|-------------------------|-------9--10-11---------|-----------------|-----7-8-9-----r-| 
D|-------11----------------|----11------------------|-------9---------|---9-------9---e-| 
A|----11----11-------11-/9-|-------------------9\---|-----------9---7-|-------------7-s-|  
E|-9--------------9--------|------------------------|-7-----------7---|---------------t-| 

   1  +  2  +  3  +  4  +    1  +  2  +  3  +  4  +   1 + 2 + 3 + 4 +   1 + 2 + 3 + 4 + 
G|-------------------------|-------9--10-11---------|-----------------|-----7-8-9-----r-| 
D|-------11----------------|----11------------------|-------9---------|---9-------9---e-| 
A|----11----11-------11-/9-|-------------------9\---|-----------9---7-|-------------7-s-|  
E|-9--------------9--------|------------------------|-7-----------7---|---------------t-| 

   1  +  2  +  3  +  4  +    1  +  2  +  3  +  4  +   1 + 2 + 3 + 4 +   1 + 2 + 3 + 4 + 
G|-------------------------|-------9--10-11---------|-----------------|-----7-8-9-----r-| 
D|-------11----------------|----11------------------|-------9---------|---9-------9---e-| 
A|----11----11-------11-/9-|-------------------9\---|-----------9---7-|-------------7-s-|  
E|-9--------------9--------|------------------------|-7-----------7---|---------------t-| 

   1  +  2  +  3  +  4  +    1  +  2  +  3  +  4  +   1 + 2 + 3 + 4 +   1 + 2 + 3 + 4 + 
G|-------------------------|-------9--10-11---------|-----------------|-----7-8-9-----r-| 
D|-------11----------------|----11------------------|-------9---------|---9-------9---e-| 
A|----11----11-------11-/9-|-------------------9\---|-----------9---7-|-------------7-s-| 
E|-9--------------9--------|------------------------|-7-----------7---|---------------t-| 

   1  +  2  +  3  +  4  +    1  +  2  +  3  +  4  +   1 + 2 + 3 + 4 +   1 + 2 + 3 + 4 + 
G|-------------------------|-------9--10-11---------|-----------------|-----7-8-9-----r-| 
D|-------11----------------|----11------------------|-------9---------|---9-------9---e-| 
A|----11----11-------11-/9-|-------------------9\---|-----------9---7-|-------------7-s-| 
E|-9--------------9--------|------------------------|-7-----------7---|---------------t-| 

   1  +  2  +  3  +  4  +    1  +  2  +  3  +  4  +   1 + 2 + 3 + 4 +   1 + 2 + 3 + 4 + 
G|-------------------------|-------9--10-11---------|-----------------|-----7-8-9-----r-| 
D|-------11----------------|----11------------------|-------9---------|---9-------9---e-| 
A|----11----11-------11-/9-|-------------------9\---|-----------9---7-|-------------7-s-| 
E|-9--------------9--------|------------------------|-7-----------7---|---------------t-| 

   1  +  2  +  3  +  4  +    1  +  2  +  3  +  4  +   1 + 2 + 3 + 4 +   1 + 2 + 3 + 4 + 
G|-------------------------|-------9--10-11---------|-----------------|-----7-8-9-----r-| 
D|-------11----------------|----11------------------|-------9---------|---9-------9---e-| 
A|----11----11-------11-/9-|-------------------9\---|-----------9---7-|-------------7-s-| 
E|-9--------------9--------|------------------------|-7-----------7---|---------------t-| 

Outro 

   1  +  2  +  3  +  4  +    1  +  2  +  3  +  4  + 
G|-------------------------|-------9--10-11----r----|| 
D|-------11----------------|----11--------------e---|| 
A|----11----11-------11-/9-|---------------------s--|| 
E|-9--------------9--------|----------------------t-|| 

 
		  

See also:

bass Deep Purple - Speed King bass Deep Purple - Into The Fire bass Deep Purple - Smoke On The Water bass Deep Purple - Fire Ball bass Deep Purple - Smoke On The Water (ver. 2) bass Deep Purple - Space Truckin'
e-chords

Other versions:

bass Joey Bada$$ - Pennyroyal bass Mf Doom - Pennyroyal bass Nirvana - Pennyroyal Tea bass Nirvana - Pennyroyal Tea (Ver.2)
auto scroll beats size up size down change color hide chords drawings
tab show chords e-chords YouTube Clip e-chords hide all tabs e-chords go to top tab

share