Metallica

home > Metallica

Whiplash Bass Tab

Metallica

Difficulty: ExpertExpert

by eduardo%5Flyvio

tuner correct add songbook print version text version save to e-mail
chordsukulelecavacokeyboardtabbassdrummharmonicsflute Guitar Pro
chords

Whiplash

Year: 1983 - Album: Kill 'Em All

  		Intro 
 
 
 
168 bpm 3 times 3/4 4/4 160 bpm 23 times 
 
-------||---------------||-----||-------------------------------------|| 
 
-------||-o---R-------o-||---R-||-o---------------------------------o-|| 
 
-7-7-7-||-o-7---7-7-7-o-||-7---||-o-7-7-7-7-7-7-7-7-7-7-7-7-7-7-7-7-o-|| 
 
-------||---------------||-----||-------------------------------------|| 
 
e e e q h e e e q h s s s s s s s s s s s s s s s s 
 
{ 3 } { 3 } 
 
 
 
fig.1 
 
|-------------------------||-----------------------------------| 
 
|-------------------------||-o---------------------------------| 
 
|-7-7-7-7-7-7-7-7---------||-o---------------------------------| 
 
|-----------------5--4--3-||---0-0-0-0-0-0-0-0-0-0-0-0-0-0-0-0-| 
 
s s s s s s s s e. e. e s s s s s s s s s s s s s s s s 
 
 
 
end fig.1 4 times fig.2 
 
|---------------------------|||-----------------------------------| 
 
|-------------------------o-|||-o---------------------------------| 
 
|-------------------------o-|||-o---------------------------------| 
 
|-0-0-0-0-0-0-0-0-5--4--3---|||---0-0-0-0-0-0-0-0-0-0-0-0-0-0-0-0-| 
 
s s s s s s s s e. e. e s s s s s s s s s s s s s s s s 
 
 
 
end fig.2 4 times 
 
|---------------------------------|| 
 
|-------------------------------o-|| 
 
|-------------------------------o-|| 
 
|-0-0-0-0-0-0-0-0-0-0-0-0-0-0-3---|| 
 
s s s s s s s s s s s s s s e 
 
 
 
Verse 1,2,3 
 
 
 
||-- || 
 
||-o play fig.2 4 times || 
 
||-o || 
 
||-- || 
 
 
 
Chorus 
 
fig.3 end fig.3 3 times 
 
||-------------------|-------------------------|| 
 
||-o-----------------|-----------------------o-|| 
 
||-o-3-3-3-3-3-3-2-0-|-----------------------o-|| 
 
||-------------------|-0h2-2-2-2-2-2-2-2-2-0---|| 
 
e e s s e q q q s s s s e s s e s s q 
 
{ 3 } 
 
 
 
|1,2. | 
 
|---|| --|| 
 
|---|| play fig.1 4 times o-|| 
 
|-R-|| o-|| 
 
|---|| --|| 
 
w 
 
 
 
|3. Interlude & Guitar solo 12 times 
 
|---|---|-------------||-----------------------|-----------------------|| 
 
|---|---|-------------||-o---------------------|---------------------o-|| 
 
|-R-|-R-|-5-4-3-------||-o-7p5---5---5---------|-7p5---5---5---------o-|| 
 
|---|---|-------5-4-3-||-------7---7---0-0-0-0-|-----7---7---0-0-0-0---|| 
 
w w q q q q q q s s s e s e e e e e s s s e s e e e e e 
 
{ 3 } { 3 } 
 
 
 
7/8 4/4 
 
|---|-------| || 
 
|---|-------| play fig.1 4 times || 
 
|---|----R--| || 
 
|-0-|-0-----| || 
 
w q h+e 
 
 
 
Verse 4 : play fig.2 4 times, play fig.3 3 times 
 
 
 
|-----------------|-------------------|-------------------| 
 
|-----------------|-------------------|-------------------| 
 
|-3-3-3-3-3-3-2-0-|-----------------R-|-----------------R-| 
 
|-----------------|-0-2-2-2-2-0-2-0---|-0-2-2-2-2-0-2-0---| 
 
e e s s e q q q e s s s s e e e q e s s s s e e e q 
 
{ 3 } 
 
 
 
|-------------------|-------------------|--------|-----------------|| 
 
|-------------------|-------------------|--------|-----------------|| 
 
|-----------------R-|-------------------|--------|---------------R-|| 
 
|-0-2-2-2-2-0-2-0---|-0-2-2-2-2-0-2-0---|-(0)----|-0-2-2-2-0-2-2---|| 
 
e s s s s e e e q e s s s s e e q. (l) e s s e e e e q 
 
 

	  

Search Paypal
auto scroll beats size up size down change color hide chords drawings
tab show chords e-chords YouTube Clip e-chords hide all tabs e-chords go to top tab