Metallica

home > Metallica

St. Anger Bass Tab

Metallica

Difficulty: BeginnerBeginner

by eduardo%5Flyvio

tuner correct add songbook print version text version save to e-mail
chordsukulelecavacokeyboardtabbassdrummharmonicsflute Guitar Pro
chords

St. Anger

Year: 2003 - Album: St. Anger

  		F||------|------|------|------|------|------|------| 
C||------|------|------|------|------|------|------| 
G||------|------|------|------|------|------|------| 
C||------|------|------|------|------|------|------| 
 
 
                                                                        
----------------------------|--------------------|--------------------| 
----------------------------|--------------------|--------------------| 
------3---3---3---3---------|------3---3---------|------3---3---------| 
------3---3---3---3---------|------3---3---------|------3---3---------| 
 
 
                                                   
--------------------|----------------------------| 
--------------------|----------------------------| 
------3---3---------|------3---3---3---3---------| 
------3---3---------|------3---3---3---3---------| 
 
 
                                                                       
----------------------------------|----------------------------------| 
----------------------------------|----------------------------------| 
------------------------------3-3-|------------------------------3-3-| 
--0-2-3-0-3-2-0-3-2-0-0-2-3-4-----|--0-2-3-0-3-2-0-3-2-0-0-2-3-4-----| 
 
 
                                                                       
----------------------------------|----------------------------------| 
----------------------------------|----------------------------------| 
------------------------------3-3-|------------------------------3-3-| 
--0-2-3-0-3-2-0-3-2-0-0-2-3-4-----|--0-2-3-0-3-2-0-3-2-0-0-2-3-4-----| 
 
 
                                                                       
----------------------------------|----------------------------------| 
----------------------------------|----------------------------------| 
------------------------------3-3-|------------------------------3-3-| 
--0-2-3-0-3-2-0-3-2-0-0-2-3-4-----|--0-2-3-0-3-2-0-3-2-0-0-2-3-4-----| 
 
 
                                                                       
----------------------------------|----------------------------------| 
----------------------------------|----------------------------------| 
------------------------------3-3-|------------------------------3-3-| 
--0-2-3-0-3-2-0-3-2-0-0-2-3-4-----|--0-2-3-0-3-2-0-3-2-0-0-2-3-4-----| 
 
 
                                                                           
----------------------|---------------------|----------------------------| 
----------------------|---------------------|----------0--------0-----0--| 
------3---3---3---3---|---------------------|------10--------------------| 
------3---3---3---3---|--0------4----0------|--10---------8--8-----5-----| 
 
 
                                                                              
-----------------------|----------------------------|-----------------------| 
--0-------10-----------|----------0--------0-----0--|--0-------10-----------| 
-------0--------0------|------10--------------------|-------0--------0------| 
-----------------------|--10---------8--8-----5-----|-----------------------| 
 
 
                                                      
----------------------------|-----------------------| 
----------0--------0-----0--|--0-------10-----------| 
------10--------------------|-------0--------0------| 
--10---------8--8-----5-----|-----------------------| 
 
 
                                                         
----------------------------|--------------------------| 
----------0--------0-----0--|--7--7--7--7--7--7--7--7/-| 
------10--------------------|--------------------------| 
--10---------8--8-----5-----|--------------------------| 
 
 
                                                           
------------------------------|--------------------------| 
--10--10--10--10/-8--8/-7--7--|--7--7--7--7--7--7--7--7/-| 
------------------------------|--------------------------| 
------------------------------|--------------------------| 
 
 
                                                           
------------------------------|--------------------------| 
--10--10--10--10/-8--8/-7--7--|--7--7--7--7--7--7--7--7/-| 
------------------------------|--------------------------| 
------------------------------|--------------------------| 
 
 
                                                           
------------------------------|--------------------------| 
--10--10--10--10/-8--8/-7--7--|--7--7--7--7--7--7--7--7/-| 
------------------------------|--------------------------| 
------------------------------|--------------------------| 
 
 
                                                                     
------------------------------|-----------|------------------------| 
--10--10--10--10/-8--8/-7--7--|--7--------|------------------------| 
------------------------------|--5--------|------------------------| 
------------------------------|--0--------|--0-0---0-0---10--------| 
 
 
                                                             
---------------------|------------------------|------------| 
---------------------|------------------------|------------| 
---------------------|------------------------|------------| 
--8----7----0--------|--0-0---0-0---10--------|--8----7----| 
 
 
                                                           
--------------------------|------------------------------| 
--7--7--7--7--7--7--7--7/-|--10--10--10--10/-8--8/-7--7--| 
--------------------------|------------------------------| 
--------------------------|------------------------------| 
 
 
                                                           
--------------------------|------------------------------| 
--7--7--7--7--7--7--7--7/-|--10--10--10--10/-8--8/-7--7--| 
--------------------------|------------------------------| 
--------------------------|------------------------------| 
 
 
                                                           
--------------------------|------------------------------| 
--7--7--7--7--7--7--7--7/-|--10--10--10--10/-8--8/-7--7--| 
--------------------------|------------------------------| 
--------------------------|------------------------------| 
 
 
                                                           
--------------------------|------------------------------| 
--7--7--7--7--7--7--7--7/-|--10--10--10--10/-8--8/-7--7--| 
--------------------------|------------------------------| 
--------------------------|------------------------------| 
 
 
                                                           
--------------------------|------------------------------| 
--7--7--7--7--7--7--7--7/-|--10--10--10--10/-8--8/-7--7--| 
--------------------------|------------------------------| 
--------------------------|------------------------------| 
 
 
                                                           
--------------------------|------------------------------| 
--7--7--7--7--7--7--7--7/-|--10--10--10--10/-8--8/-7--7--| 
--------------------------|------------------------------| 
--------------------------|------------------------------| 
 
 
                                                           
--------------------------|------------------------------| 
--7--7--7--7--7--7--7--7/-|--10--10--10--10/-8--8/-7--7--| 
--------------------------|------------------------------| 
--------------------------|------------------------------| 
 
 
                                                                       
--------------------------|------------------------------|-----------| 
--7--7--7--7--7--7--7--7/-|--10--10--10--10/-8--8/-7--7--|--7--------| 
--------------------------|------------------------------|--5--------| 
--------------------------|------------------------------|--0--------| 
 
 
                                                                    
--------------------------|----|----------------------------------| 
--------------------------|----|----------------------------------| 
--------------------------|----|------------------------------3-3-| 
--0-0---0-0---0-0---0-0---|----|--0-2-3-0-3-2-0-3-2-0-0-2-3-4-----| 
 
 
                                                                       
----------------------------------|----------------------------------| 
----------------------------------|----------------------------------| 
------------------------------3-3-|------------------------------3-3-| 
--0-2-3-0-3-2-0-3-2-0-0-2-3-4-----|--0-2-3-0-3-2-0-3-2-0-0-2-3-4-----| 
 
 
                                                                       
----------------------------------|----------------------------------| 
----------------------------------|----------------------------------| 
------------------------------3-3-|------------------------------3-3-| 
--0-2-3-0-3-2-0-3-2-0-0-2-3-4-----|--0-2-3-0-3-2-0-3-2-0-0-2-3-4-----| 
 
 
                                                                       
----------------------------------|----------------------------------| 
----------------------------------|----------------------------------| 
------------------------------3-3-|------------------------------3-3-| 
--0-2-3-0-3-2-0-3-2-0-0-2-3-4-----|--0-2-3-0-3-2-0-3-2-0-0-2-3-4-----| 
 
 
                                                                                 
----------------------------------|----------------------|---------------------| 
----------------------------------|----------------------|---------------------| 
------------------------------3-3-|------3---3---3---3---|---------------------| 
--0-2-3-0-3-2-0-3-2-0-0-2-3-4-----|------3---3---3---3---|--0------4----0------| 
 
 
                                                      
----------------------------|-----------------------| 
----------0--------0-----0--|--0-------10-----------| 
------10--------------------|-------0--------0------| 
--10---------8--8-----5-----|-----------------------| 
 
 
                                                      
----------------------------|-----------------------| 
----------0--------0-----0--|--0-------10-----------| 
------10--------------------|-------0--------0------| 
--10---------8--8-----5-----|-----------------------| 
 
 
                                                      
----------------------------|-----------------------| 
----------0--------0-----0--|--0-------10-----------| 
------10--------------------|-------0--------0------| 
--10---------8--8-----5-----|-----------------------| 
 
 
                                                         
----------------------------|--------------------------| 
----------0--------0-----0--|--7--7--7--7--7--7--7--7/-| 
------10--------------------|--------------------------| 
--10---------8--8-----5-----|--------------------------| 
 
 
                                                           
------------------------------|--------------------------| 
--10--10--10--10/-8--8/-7--7--|--7--7--7--7--7--7--7--7/-| 
------------------------------|--------------------------| 
------------------------------|--------------------------| 
 
 
                                                           
------------------------------|--------------------------| 
--10--10--10--10/-8--8/-7--7--|--7--7--7--7--7--7--7--7/-| 
------------------------------|--------------------------| 
------------------------------|--------------------------| 
 
 
                                                           
------------------------------|--------------------------| 
--10--10--10--10/-8--8/-7--7--|--7--7--7--7--7--7--7--7/-| 
------------------------------|--------------------------| 
------------------------------|--------------------------| 
 
 
                                                                             
------------------------------|-------------------|------------------------| 
--10--10--10--10/-8--8/-7--7--|--7----------------|------------------------| 
------------------------------|--5----------------|------------------------| 
------------------------------|--0----------------|--0-0---0-0---10--------| 
 
 
                                                             
---------------------|------------------------|------------| 
---------------------|------------------------|------------| 
---------------------|------------------------|------------| 
--8----7----0--------|--0-0---0-0---10--------|--8----7----| 
 
 
                                                           
--------------------------|------------------------------| 
--7--7--7--7--7--7--7--7/-|--10--10--10--10/-8--8/-7--7--| 
--------------------------|------------------------------| 
--------------------------|------------------------------| 
 
 
                                                           
--------------------------|------------------------------| 
--7--7--7--7--7--7--7--7/-|--10--10--10--10/-8--8/-7--7--| 
--------------------------|------------------------------| 
--------------------------|------------------------------| 
 
 
                                                           
--------------------------|------------------------------| 
--7--7--7--7--7--7--7--7/-|--10--10--10--10/-8--8/-7--7--| 
--------------------------|------------------------------| 
--------------------------|------------------------------| 
 
 
                                                           
--------------------------|------------------------------| 
--7--7--7--7--7--7--7--7/-|--10--10--10--10/-8--8/-7--7--| 
--------------------------|------------------------------| 
--------------------------|------------------------------| 
 
 
                                                           
--------------------------|------------------------------| 
--7--7--7--7--7--7--7--7/-|--10--10--10--10/-8--8/-7--7--| 
--------------------------|------------------------------| 
--------------------------|------------------------------| 
 
 
                                                           
--------------------------|------------------------------| 
--7--7--7--7--7--7--7--7/-|--10--10--10--10/-8--8/-7--7--| 
--------------------------|------------------------------| 
--------------------------|------------------------------| 
 
 
                                                           
--------------------------|------------------------------| 
--7--7--7--7--7--7--7--7/-|--10--10--10--10/-8--8/-7--7--| 
--------------------------|------------------------------| 
--------------------------|------------------------------| 
 
 
                                                                       
--------------------------|------------------------------|-----------| 
--7--7--7--7--7--7--7--7/-|--10--10--10--10/-8--8/-7--7--|--7--------| 
--------------------------|------------------------------|--5--------| 
--------------------------|------------------------------|--0--------| 
 
 
                                                                             
--------------------------|------|------|------|------|------|------|------| 
--------------------------|------|------|------|------|------|------|------| 
--------------------------|------|------|------|------|------|------|------| 
--0-0---0-0---0-0---0-0---|------|------|------|------|------|------|------| 
 
 
                                                                        
----------------------------|--------------------|--------------------| 
----------------------------|--------------------|--------------------| 
------3---3---3---3---------|------3---3---------|------3---3---------| 
------3---3---3---3---------|------3---3---------|------3---3---------| 
 
 
                                                   
--------------------|----------------------------| 
--------------------|----------------------------| 
------3---3---------|------3---3---3---3---------| 
------3---3---------|------3---3---3---3---------| 
 
 
                                                                       
----------------------------------|----------------------------------| 
----------------------------------|----------------------------------| 
------------------------------3-3-|------------------------------3-3-| 
--0-2-3-0-3-2-0-3-2-0-0-2-3-4-----|--0-2-3-0-3-2-0-3-2-0-0-2-3-4-----| 
 
 
                                                                       
----------------------------------|----------------------------------| 
----------------------------------|----------------------------------| 
------------------------------3-3-|------------------------------3-3-| 
--0-2-3-0-3-2-0-3-2-0-0-2-3-4-----|--0-2-3-0-3-2-0-3-2-0-0-2-3-4-----| 
 
 
                                                                       
----------------------------------|----------------------------------| 
----------------------------------|----------------------------------| 
------------------------------3-3-|------------------------------3-3-| 
--0-2-3-0-3-2-0-3-2-0-0-2-3-4-----|--0-2-3-0-3-2-0-3-2-0-0-2-3-4-----| 
 
 
                                                                       
----------------------------------|----------------------------------| 
----------------------------------|----------------------------------| 
------------------------------3-3-|------------------------------3-3-| 
--0-2-3-0-3-2-0-3-2-0-0-2-3-4-----|--0-2-3-0-3-2-0-3-2-0-0-2-3-4-----| 
 
 
                                                                       
----------------------------------|----------------------------------| 
----------------------------------|----------------------------------| 
------------------------------3-3-|------------------------------3-3-| 
--0-2-3-0-3-2-0-3-2-0-0-2-3-4-----|--0-2-3-0-3-2-0-3-2-0-0-2-3-4-----| 
 
 
                                                                       
----------------------------------|----------------------------------| 
----------------------------------|----------------------------------| 
------------------------------3-3-|------------------------------3-3-| 
--0-2-3-0-3-2-0-3-2-0-0-2-3-4-----|--0-2-3-0-3-2-0-3-2-0-0-2-3-4-----| 
 
 
                                                                       
----------------------------------|----------------------------------| 
----------------------------------|----------------------------------| 
------------------------------3-3-|------------------------------3-3-| 
--0-2-3-0-3-2-0-3-2-0-0-2-3-4-----|--0-2-3-0-3-2-0-3-2-0-0-2-3-4-----| 
 
 
                                                                       
----------------------------------|----------------------------------| 
----------------------------------|----------------------------------| 
------------------------------3-3-|------------------------------3-3-| 
--0-2-3-0-3-2-0-3-2-0-0-2-3-4-----|--0-2-3-0-3-2-0-3-2-0-0-2-3-4-----| 
 
 
                                                                       
----------------------------------|----------------------------------| 
----------------------------------|----------------------------------| 
------------------------------3-3-|------------------------------3-3-| 
--0-2-3-0-3-2-0-3-2-0-0-2-3-4-----|--0-2-3-0-3-2-0-3-2-0-0-2-3-4-----| 
 
 
                                                                       
----------------------------------|----------------------------------| 
----------------------------------|----------------------------------| 
------------------------------3-3-|------------------------------3-3-| 
--0-2-3-0-3-2-0-3-2-0-0-2-3-4-----|--0-2-3-0-3-2-0-3-2-0-0-2-3-4-----| 
 
 
                                                                       
----------------------------------|----------------------------------| 
----------------------------------|----------------------------------| 
------------------------------3-3-|------------------------------3-3-| 
--0-2-3-0-3-2-0-3-2-0-0-2-3-4-----|--0-2-3-0-3-2-0-3-2-0-0-2-3-4-----| 
 
 
                                                                       
----------------------------------|----------------------------------| 
----------------------------------|----------------------------------| 
------------------------------3-3-|------------------------------3-3-| 
--0-2-3-0-3-2-0-3-2-0-0-2-3-4-----|--0-2-3-0-3-2-0-3-2-0-0-2-3-4-----| 
 
 
                                                                       
----------------------------------|----------------------------------| 
----------------------------------|----------------------------------| 
------------------------------3-3-|------------------------------3-3-| 
--0-2-3-0-3-2-0-3-2-0-0-2-3-4-----|--0-2-3-0-3-2-0-3-2-0-0-2-3-4-----| 
 
 
                                                   
----------------------|--------------------------| 
----------------------|--7--7--7--7--7--7--7--7/-| 
------3---3---3---3---|--------------------------| 
------3---3---3---3---|--------------------------| 
 
 
                                                           
------------------------------|--------------------------| 
--10--10--10--10/-8--8/-7--7--|--7--7--7--7--7--7--7--7/-| 
------------------------------|--------------------------| 
------------------------------|--------------------------| 
 
 
                                                           
------------------------------|--------------------------| 
--10--10--10--10/-8--8/-7--7--|--7--7--7--7--7--7--7--7/-| 
------------------------------|--------------------------| 
------------------------------|--------------------------| 
 
 
                                                           
------------------------------|--------------------------| 
--10--10--10--10/-8--8/-7--7--|--7--7--7--7--7--7--7--7/-| 
------------------------------|--------------------------| 
------------------------------|--------------------------| 
 
 
                                                           
------------------------------|--------------------------| 
--10--10--10--10/-8--8/-7--7--|--7--7--7--7--7--7--7--7/-| 
------------------------------|--------------------------| 
------------------------------|--------------------------| 
 
 
                                                           
------------------------------|--------------------------| 
--10--10--10--10/-8--8/-7--7--|--7--7--7--7--7--7--7--7/-| 
------------------------------|--------------------------| 
------------------------------|--------------------------| 
 
 
                                                           
------------------------------|--------------------------| 
--10--10--10--10/-8--8/-7--7--|--7--7--7--7--7--7--7--7/-| 
------------------------------|--------------------------| 
------------------------------|--------------------------| 
 
 
                                                           
------------------------------|--------------------------| 
--10--10--10--10/-8--8/-7--7--|--7--7--7--7--7--7--7--7/-| 
------------------------------|--------------------------| 
------------------------------|--------------------------| 
 
 
                                                           
------------------------------|--------------------------| 
--10--10--10--10/-8--8/-7--7--|--7--7--7--7--7--7--7--7/-| 
------------------------------|--------------------------| 
------------------------------|--------------------------| 
 
 
                                                           
------------------------------|--------------------------| 
--10--10--10--10/-8--8/-7--7--|--7--7--7--7--7--7--7--7/-| 
------------------------------|--------------------------| 
------------------------------|--------------------------| 
 
 
                                                                              
------------------------------|-----------|--------------------------|------| 
--10--10--10--10/-8--8/-7--7--|--7--------|--------------------------|------| 
------------------------------|--5--------|--------------------------|------| 
------------------------------|--0--------|--0-0---0-0---0-0---0-0---|------| 
 
 
              
----2------|| 
----0------|| 
----0------|| 
----0------|| 
 
 

	  

Search Paypal
auto scroll beats size up size down change color hide chords drawings
tab show chords e-chords YouTube Clip e-chords hide all tabs e-chords go to top tab