Metallica

home > Metallica

Seek And Destroy Bass Tab

Metallica

Difficulty: EasyEasy

by eduardo%5Flyvio

tuner correct add songbook print version text version save to e-mail
chordsukulelecavacokeyboardtabbassdrummharmonicsflute Guitar Pro
chords

Seek And Destroy

Year: 1983 - Album: Kill 'Em All

  		140 bpm 
        cresc. 
|  6  |-----------------|-----------------||---------------------| 
|-----|-----------------|---------7-7-7---||-o-----5h7-----5h7---| 
|-----|-0-0-0-0-0-0-0-0-|-0-0-0-0-------0-||-o-0-0-----0-0-----0-| 
|     |-----------------|-----------------||---------------------| 
        e e e e e e e e   e e e e e e e e      e e   q e e   e e 
 
                 4 times 
|---------------5-----||---------|-------|  3  |-----------|-------------| 
|-----------5-----7-o-||---------|-------|-----|-----------|-------------| 
|-(0)-0-8-7---7-----o-||---R-----|----R--|-----|-R-----R---|-R-----R-----| 
|---------------------||-0---12\-|-\0----|     |---0-0---0-|---0-0---0-0-| 
  (e) e e e e e e e      q h q      q h.         q e e q q   q e e q e e 
 
|-----------------|-----------------||-------------------| 
|-----------------|-----------------||-o-----------------| 
|---------7-7-7-7-|---------7-5-----||-o-----------------| 
|-0-0-0-0---------|-0-0-0-0-----7-6-||---0-0-0-0-3-5-3-5-| 
  e e e e e e e e   e e e e e e e e      e e e e e e e e 
 
              4 times fig.1 
|-------------------||-----------------|-----------------|-----------------| 
|-----------------o-||-----------------|-------------5---|-----------------| 
|---------7-5-----o-||-----------------|---------------7-|-----------------| 
|-0-0-0-0-----7-6---||-0-0-0-0-0-0-0-0-|-0-0-0-0-7-6-----|-0-0-0-0-0-0-0-0-| 
  e e e e e e e e      e e e e e e e e   e e e e e e e e   e e e e e e e e 
 
|-----------------|-----------------|-----------------|-----------------| 
|-----------------|-----------------|-------------5---|-----------------| 
|-----------------|-----7-----------|---------------7-|-----7-------7---| 
|-0-0-0-0-7-6-3-0-|-0-0---0-0-0-0-0-|-0-0-0-0-7-6-----|-0-0---0-0-0---0-| 
  e e e e e e e e   e e e e e e e e   e e e e e e e e   e e e e e e e e 
 
                   S 
          end fig.1  Verse 1,2,3  Pre-Chorus 
|-----------------||            ||-----------------|----------------| 
|-----------------|| play fig.1 ||-o---------------|----------5---7-| 
|-----7-----------||            ||-o-3-0-0-0-3-5-3-|-3-0-0-/7---7---| 
|-0-0---0-7-6-3-0-||            ||-----------------|----------------| 
  e e e e e e e e                    e e e e e e q   e e e  e e e q 
 
                |1.                  |2. 
|---------------|-7-5---------------||-9-7---7---------|-----------------| 
|---------------|-----7-6-5-------o-||-----9---9-8-7-5-|-----------------| 
|-0-0-0-0-3-5-3-|-----------7-6-5-o-||-----------------|-7-5---5---------| 
|---------------|-------------------||-----------------|-----7---7-6-5-3-| 
  e e e e e e q   e e e e e e e e      e e e e e e e e   e e e e e e e e 
 
Chorus                                           |1. 
||-------------------|---------|-----------------|---------------------|| 
||-o---------------5-|---------|-----------------|-------------------o-|| 
||-o-----------------|---------|-----------------|-------5---7---7---o-|| 
||---3-3-3-3-3-3-3---|-2-2-1-1-|-0-0-0-0-0-0-0-0-|-0-5-7---0---0---0---|| 
     e e e e e s s q   q q q q   e e e e e e e e   e s s e e e e e e 
 
|2. 3rd time fill 1  |3.        to coda I,II|4. 
|-------------------||---------------------||-----------------| 
|-----------------o-||-------------------o-||-----------------| 
|-7-5-------------o-||-------5---7---7---o-||-----------------| 
|-----7-6-5-7-6-5---||-0-5-7---0---0---0---||-0-0-0-0-3-5-3-5-| 
  e e e e e e e e      e s s e e e e e e      e e e e e e e e 
      fill 1 
   |-----------------| 
   |-----------------| 
   |-7-5-------------| 
   |-----7-5-6-5-7-5-| 
     e e e e e e e e 
 
|-----------------|-----------------|-----------------|-----------------| 
|-----------------|-----------------|-----------------|-----------------| 
|---------7-5-----|-----------------|-----------5-6-7-|-----------------| 
|-0-0-0-0-----7-6-|-0-0-0-0-3-5-3-5-|-0-3-5-6-7-------|-0-0-0-0-3-5-3-5-| 
  e e e e e e e e   e e e e e e e e   e e e e e e e e   e e e e e e e e 
 
                                                D.S al coda I 
|-----------------|-----------------|-----------------|| 
|-----------------|-----------------|-----------------|| 
|---------7-5-----|-----------------|---------7-5-----|| 
|-0-0-0-0-----7-6-|-0-0-0-0-3-5-3-5-|-0-0-0-0-----7-6-|| 
  e e e e e e e e   e e e e e e e e   e e e e e e e e 
 
Coda I                          208 bpm        (guitar) 
|-----------------|---------|---||------|  3  ||  7  |-----------------|| 
|---------------5-|---------|---||------|-----||-----|-------3-2-0-----|| 
|-----------------|---------|---||---R--|-----||-----|-3-2-0-------3-0-|| 
|-3-3-3-3-3-3-3---|-2-2-1-1-|-0-||-0----|     ||     |-----------------|| 
  e e e e e s s q   q q q q   w    q h.                e e e e e e e e 
 
                                                             2 times 
||-------------------|-----------------|-----|-------------------|| 
||-o-------7-----7---|-------7-----7---|  %  |-------3-2-0-----o-|| 
||-o-----0---0-0---0-|-0-0-0---0-0---0-|-----|-3-2-0-------3-0-o-|| 
||---3h5-------------|-----------------|-----|-------------------|| 
     e e e e e e e e   e e e e e e e e         e e e e e e e e 
 
Guitar solo                                                 3 times 
||-------------|---------|-----------------|-------------------|| 
||-o-----------|---------|-----------------|-----------------o-|| 
||-o-----------|---------|-----7-7-----7-7-|-----7-7-----7-7-o-|| 
||---3-3-3-3-3-|-2-2-1-1-|-0-0-----0-0-----|-0-0-----0-0-------|| 
     q q e e q   q q q q   e e e e e e e e   e e e e e e e e 
 
|-----------|---------||-------------------|-----------------| 
|-----------|---------||-o-----------------|-----------------| 
|-----------|---------||-o-5h7---7-----7---|-5h7---7-----7---| 
|-3-3-3-3-3-|-2-2-1-1-||-------0---0-0---0-|-----0---0-0---0-| 
  q q e e q   q q q q      e e e e e e e e   e e e e e e e e 
 
                  |1,2,3.              |4. 
|-----------------|-------------------||-----------------|-----------------| 
|-----------------|-----------------o-||-----------------|-----------------| 
|-4h7---7-----7---|-------3-2-0-----o-||-------3-2-0-----|-------3-2-0-----| 
|-----0---0-0---0-|-3-2-0-------3-0---||-3-2-0-------3-2-|-3-2-0-------3-2-| 
  e e e e e e e e   e e e e e e e e      e e e e e e e e   e e e e e e e e 
 
      Tempo I 
|----||------|--------|------|--------|------|---|-----------------| 
|----||---R--|-R------|---R--|-R------|---R--|-R-|-----------------| 
|-0--||-0----|----0-0-|-0----|----0-0-|-0----|---|-0-0-0-0-0-0-0-0-| 
|----||------|--------|------|--------|------|---|-----------------| 
  l     q h.   h. e e   q h.   h. e e   q h.   w   e e e e e e e e 
 
                                                           4 times 
|-----------------||---------------------|---------------5-----|| 
|-----7---7-7-----||-o-----5h7-----5h7---|-----------5-----7-o-|| 
|-0-0---0-----0-0-||-o-0-0-----0-0-----0-|-(0)-0-8-7---7-----o-|| 
|-----------------||---------------------|---------------------|| 
  e e e e e e e e      e e   q e e   e e   (e) e e e e e e e 
 
|---------|-----------------|-----------------|-----------------| 
|---------|-----------------|-----------------|-----------------| 
|---R-----|-----------------|---------7-5-----|-----------------| 
|-0---12\-|-0-0-0-0-3-5-3-5-|-0-0-0-0-----7-6-|-0-0-0-0-3-5-3-5-| 
  q h q     e e e e e e e e   e e e e e e e e   e e e e e e e e 
 
|-----------------|-----------------|-----------------|-----------------| 
|-----------------|-----------------|-----------------|-----------------| 
|-----------5-6-7-|-----------------|---------7-5-----|-----------------| 
|-0-3-5-6-7-------|-0-0-0-0-3-5-3-5-|-0-0-0-0-----7-6-|-0-0-0-0-3-5-3-5-| 
  e e e e e e e e   e e e e e e e e   e e e e e e e e   e e e e e e e e 
 
                D.S al coda II 
|-------------------|| 
|-------------------|| 
|-------5---7-5-----|| 
|-0-5h7---7-----7-6-|| 
  e s s e e e e e e 
 
Coda II 
|-----------------|---------|-----------------|------------------| 
|---------------5-|---------|-----------------|------------------| 
|-----------------|---------|-----------------|---------------10-| 
|-3-3-3-3-3-3-3---|-2-2-1-1-|-0-0-0-0-0-0-0-0-|-0-0-0-0-0-0-0----| 
  e e e e e s s q   q q q q   e e e e e e e e   e e e e e e e e 
 
|-----------------|------------------|-----------------|------------------| 
|-----------------|------------------|-----------------|------------------| 
|-9-----9-8-----8-|-7-------------10-|-9-----9-5-----5-|-7---5---7-7-7-10-| 
|---0-0-----0-0---|---0-0-0-0-0-0----|---0-0-----0-0---|---0---0----------| 
  e e e e e e e e   e e e e e e e e    e e e e e e e e   e e e e e e e e 
 
|-----------------|------------------|-----------------|----------------| 
|-----------------|------------------|-----------------|----------------| 
|-9-----9-8-----8-|-7-------------10-|-9-----9-5-----5-|-7---5---7-7-7\-| 
|---0-0-----0-0---|---0-0-0-0-0-0----|---0-0-----0-0---|---0---0--------| 
  e e e e e e e e   e e e e e e e e    e e e e e e e e   e e e e e e q 
 
                     |1-7.                |8. 5/4               4/4 
||-------------------|-------------------||---------------------|------| 
||-o-----------------|-----------------o-||---------------------|------| 
||-o-----------------|-----------------o-||---------------------|---R--| 
||---0-0-0-0-0-3-0-0-|-2-0-0-3-0-0-5-3---||-2-0-0-3-0-0-5-3-0-0-|-0----| 
     e e e e e e e e   e e e e e e e e      e e e e e e e e e e   q h. 
 
|------|------|-------------|| 
|------|------|-----------R-|| 
|---R--|---R--|---------7---|| 
|-0----|-0----|-0-0-0-0-----|| 
  q h.   q h.   e e e e q q 
 
 

	  

Search Paypal
auto scroll beats size up size down change color hide chords drawings
tab show chords e-chords YouTube Clip e-chords hide all tabs e-chords go to top tab