Metallica

home > Metallica

Ronnie Bass Tab

Metallica

Difficulty: nolevelnolevel

by eduardo%5Flyvio

tuner correct add songbook print version text version save to e-mail
chordsukulelecavacokeyboardtabbassdrumsharmonicsflute Guitar Pro
chords

Ronnie

Year: 1996 - Album: Load

  		INTRO  GUITAR              BASS FIG 1 
|-------------------------|----------------------------| 
|-------------------------|----------------------------| 
|-------------------------|----------------------------| 
|-------------------0--3--|5---X-5-----X-5-----X-5---3-| 
                                                       END BASS FIG 1 
|----------------------------------------------------------------------| 
|----------------------------------------------------------------------| 
|----------------------3---------------------------3--3--3--5--5-----3-| 
|--5---X-5---X-5--X-5-----5--X-5--X-5--0--3--4---5---------------------| 
 
 BASS FIG 2                                          END BASS FIG 2 
|--------------------------------------------|---|---------------------| 
|---7---7-7---7---0-2-----7-7---7-7---7---0-2|---|---------------------| 
|0---0-----0---0-----3P0-----0-----0---0-----|---|-3-2-----------3H5---| 
|--------------------------------------------|---|-----0-1-3-X-X-------| 
 
  1ST VERSE 
|----------------------------------------------------------------------| 
|------------------------------------------------------------------5---| 
|--------------------------------------------------------5---5--7------| 
|---0---0--0----0--0----X-0----0---0---0--0-0-0----0-0-0---------------| 
 
|----------------------------------------------------------------| 
|--------------------------------------------5H7P----------------| 
|--7--------------------------------------7-------5--5-----0--3--| 
|-------0---0-0---X-0---0--0--0-0-0-0---0-0----------------------| 
 
  BASS FILL 1                                     END FILL 1 
|---------------------------------------------------------------| 
|-----7-----7--7-----7-----0--2-----7--7----7-7-----------------| 
|--0-----0--------0-----0-------3P0------0------0---------------| 
|--------------------------------------------------0--3---3---2-| 
 
  2ND VERSE W/ BASS FIG 3 
 
|--------------------------------------------------------------| 
|--------------------------------------------------------------| 
|--3H5-5-5-5-5-5-5-5-5-5--5--3H5-5P3-5-5-5-5-5-5-5H3-3-3-3-3-2-| 
|--------------------------------------------------------------| 
 
 Chorus W/ BASS FIG 1  2X's 
 W/ FILL 2 
 W/FIG 2  
 
 3RD VERSE W/ BASS FIG 3 
 W FILL 1 
 
 4TH VERSE W/ BASS FIG 3 
 
|----------------------------------------------------------------------- 
|--------------/5----4-------------------------------------------------- 
|-----------------------5----5--5-5H7-5-5-5-5-5-5-5-5-5-5-5--5-5--5-5-5- 
|---0-0-0-0-0----------------------------------------------------------- 
 
-----------------------------|  |--------| 
-----------------------------|  |--------| 
--5-5-5-5-5-5-5-5\3-3--3-3-2-|  |--3-----|   
-----------------------------|  |--------| 
 
|---------------------------------------------------------------| 
|--------7--7-7--------7-7-7-7---------7--7-7-----------------7-| 
|-0--0-0--------0--0-0----------0--0-0--------0-0-0-0-0-0-0-0---| 
|---------------------------------------------------------------| 
 
|----------------------------------------------------------| 
|---(7)--------7--7-7---7P5--------------------------------| 
|-----------0---------------7--5---------------------------| 
|--------------------------------5-5--5\-------0-0-3-3-4-5-| 
 
|----------------------------------------------------------------| 
|----------------------------------------------------------------| 
|----------------------------------------------------------------| 
|-5\-----------0---1/2-3-4--5---5--5--5\3--3--3--3--2--0--0--3/5-| 
 
|-------------------------------------------------------------------| 
|-------------------------------------------------------------------| 
|-------------------------------------------------------------------| 
|---5------------------0---1\2--3--4--5\--------------0--0--1/2-3-4-| 
 
|----------------------------------------------------------------| 
|----------------------------------------------------------------| 
|---------------------------------------3--3-3-3H5--5-5-5-3------| 
|----5\------------0--1/2--3-4--5---3H5---------------------5--5-| 
 
|----------------------------------------------------| 
|----------------------------------------------------| 
|----------------------------------------------------| 
|-5\-------------0-0-1/2-3-4-5\-----------0--1/2-3-4-| 
 
|-----------------------------------------------------------| 
|-----------------------------------------------------------| 
|-----------------------------------------------------------| 
|--5\-------------0---1/2-3-4--5--5--3--3--3--2--2--0--3--4-| 
 
 Chorus W/BASS FIG 1 2X's 
 W/BASS FILL2                OUTRO W/ BASS FIG 2 3X's 
                              W/ BASS FIG 2 
 
|----------------------------------------| 
|----------------------------------------| 
|----3----2----------------5---------(5)-| 
|--------------0--1--3-------------------| 
 
 

	  

Search Paypal
auto scroll beats size up size down change color hide chords drawings
tab show chords e-chords YouTube Clip e-chords hide all tabs e-chords go to top tab