Metallica

home > Metallica

Of Wolf and Man Bass Tab

Metallica

Difficulty: nolevelnolevel

by eduardo%5Flyvio

tuner correct add songbook print version text version save to e-mail
chordsukulelecavacokeyboardtabbassdrummharmonicsflute Guitar Pro
chords

Of Wolf and Man

Year: 1991 - Album: Metallica

  		Intro. 
E----- 
A----- 
D----- 
G--0-- 
 
Riff 1 
E----------------- 
A----------------- 
D------------2-1~- 
G--0-0-0-1-0------ 
 
Riff 2 
E----------------------- 
A----------------------- 
D-------------------2-1- 
G--0-0-0-1-0--0-0-0----- 
 
Riff 3 
E------------------------- 
A------------------------- 
D-----------2-1----------- 
G--0-0-0-1------0-0-0-0-0- 
 
Riff 4 
E----------------------- 
A----------------------- 
D----------------------- 
G--0-0-0-1-0--0-0-0-3-1- 
 
Chorus Prt 1 
E---------------------------------- 
A---------------------------------- 
D--2-1--1-1-1-1-1-1-1-1------------ 
G------------------------0-0-0-0-0- 
 
Chorus Prt 2 
E---------------------------------- 
A---------------------------------- 
D--4-3--3-3-3-3-3-3-3-3------------ 
G------------------------0-0-0-0-0- 
 
End Chorus 
E----------------------------------- 
A----------------------------------- 
D----------------------------------- 
G--0-0-0-1-0--0-0-0-1-0--0-0-0-1-9\- 
 
Guitar Solo                                                                    (x2) 
E--------------------------------------------------------------------------------- 
A--------------------------------------------------------------------------------- 
D--------------------------------------------------------------------------------- 
G--0-0-0-1-0--0-0-0-0-0-0--0-0-0-1-0--0-0-0-0-0-0--0-0-0-1-0--0-0-0-0-0-0-0-55-44- 
 
E--------------------------------- 
A--------------------------------- 
D------------2-1~~--4-3~~--------- 
G--0-0-0-1-0--------------0-0-1-1- 
 
Other End Chorus 
E---------------------- 
A---------------------- 
D---------------------- 
G--0-0-0-1-0-0-0-0-1-0- 
 
End of song 
E------------------ 
A------------------ 
D------------------ 
G--0-1-0-2-0-3-4-5- 
 
 
 
Order: 
Intro  x20 
Riff 1  x2 
Riff 2  x4 
Intro  x20 
Riff 3  x6 
Chorus Prt 1  x2 
Chorus Prt 2  x2 
End Chorus  x1 
Riff 3  x6 
Chorus Prt 1  x2 
Chorus Prt 2  x2 
End Chorus  x1 
Riff 2  x4 
Riff 1  x1 
Guitar Solo Prt 1  x2 
Guitar Solo Prt 2  x1 
Intro  x8 
Riff 4  x4 
Intro  x9 
Chorus Prt 1  x2 
Chorus Prt 2  x2 
Other End Chorus x1 
Chorus Prt 1  x1 
Chorus Prt 2  x1 
Intro  x5 
 
 

	  

Search Paypal
auto scroll beats size up size down change color hide chords drawings
tab show chords e-chords YouTube Clip e-chords hide all tabs e-chords go to top tab