Metallica

home > Metallica

MotorBreath Bass Tab

Metallica

Difficulty: nolevelnolevel

by eduardo%5Flyvio

tuner correct add songbook print version text version save to e-mail
chordsukulelecavacokeyboardtabbassdrummharmonicsflute Guitar Pro
chords

MotorBreath

Year: 1983 - Album: Kill 'Em All

  		180 bpm                 fig.1 
| 3 |-------|-----| 7 ||-----------------------|---------------------| 
|---|-R-----|---R-|---||-o---------------------|---------------------| 
|---|---0-1-|-2---|---||-o-2-2-2-0-0-2-2-2-0-0-|---------------------| 
|   |-------|-----|   ||-----------------------|-3-3-3-2-2-3-3-3-2-2-| 
      h q q   q h.         e s e s e e s e s e   e s e s e e s e s e 
 
                                end fig.1   2 times 
|---------------------|-----------------------|| 
|---------------------|---------------------o-|| 
|-0-0-0-----0-0-0-----|---------------------o-|| 
|-------3-3-------3-3-|-2-2-2-0-0-2-2-2-0-0---|| 
  e s e s e e s e s e   e s e s e e s e s e 
 
  Verses 1,2              fill 1                       end fill 1 
||--                      |-----------------|-----------------|| 
||-o  play fig.1  2 times |-----------------|-----------------|| 
||-o                      |-2--2--0-2--2--0-|-2--2--0-2--2--0-|| 
||--                      |-----------------|-----------------|| 
                            e. e. e e. e. e   e. e. e e. e. e 
 
Chorus 
 fig.2 
|-------------|-------------|-------------|-----------|-------------| 
|-------------|-------------|-------------|-----------|-----R-------| 
|-2-2-0-----R-|-5-5-2-----R-|-----R-----R-|---------R-|-2-2-------R-| 
|-------3-3---|-------2-2---|-3-3---0-0---|-2-2-0-2---|-------3-3---| 
  e q e e q e   e q e e q e   e q e e q e   e q e q q   e q e e q e 
 
                                        end fig.2 
|-------------|-------------|-------------------|| 8  --|| 
|-------------|-------------|-------------------||----o-|| 
|-5-5-2-----R-|-----R-----R-|-----------------R-||----o-|| 
|-------2-2---|-3-3---0-0---|-2-2-2-2-2-2-0-2---||    --|| 
  e q e e q e   e q e e q e   s s s s s s e q q 
 
               Guitar solo I 
5/4           4/4 
|-------------||-------------------------|-----------------------| 
|-------------||-o-----------------------|-----------------------| 
|-2-2--2--3---||-o-4-4-4-4-4-4-4-4-2-2-4-|-4-4-4-4-4-4-4-4-------| 
|-------------||-------------------------|-----------------4-4-4-| 
  h e. e. s+q      e s s s s s s e e e e   e s s s s s s e e e e 
 
                        |1.                      |2. 
|-----------------------|-----------------------||---------------|| 
|-----------------------|---------------------o-||---------R-----|| 
|-4-4-4-4-4-4-4-4-2-2-4-|-4-4-4-4-4-4-4-------o-||-4-4-4-4---4-3-|| 
|-----------------------|---------------4-4-4---||---------------|| 
  e s s s s s s e e e e   e s s s s s s q q q      e e s s e q q 
                                        { 3 } 
 
play fig.1 
 
Verse 3 : play fig.1  2 times, fill 1, fig.2 
 
       Guitar solo II 
|-----||-------------------------|-----------------------| 
|-----||-o-----------------------|-----------------------| 
|-2-3-||-o-4-4-4-4-4-4-4-4-2-2-4-|-4-4-4-4-4-4-4-4-------| 
|-----||-------------------------|-----------------4-4-4-| 
  h h      e s s s s s s e e e e   e s s s s s s e e e e 
 
                                          6 times 
|-----------------------|-----------------------|| 
|-----------------------|---------------------o-|| 
|-4-4-4-4-4-4-4-4-2-2-4-|-4-4-4-4-4-4-4-------o-|| 
|-----------------------|---------------4-4-4---|| 
  e s s s s s s e e e e   e s s s s s s q q q 
                                        { 3 } 
 
|--------------|-----|| 
|--------------|---R-|| 
|-2-2-2--------|-4---|| 
|--------2-2-2-|-----|| 
  q q q  q q q   q h. 
  { 3 }  { 3 } 
 
 

	  

Search Paypal
auto scroll beats size up size down change color hide chords drawings
tab show chords e-chords YouTube Clip e-chords hide all tabs e-chords go to top tab