Metallica

home > Metallica

Mama Said Bass Tab

Metallica

Difficulty: BeginnerBeginner

by eduardo%5Flyvio

tuner correct add songbook print version text version save to e-mail
chordsukulelecavacokeyboardtabbassdrummharmonicsflute Guitar Pro
chords

Mama Said

Year: 1996 - Album: Load

  		Verse: 
G--|---------------------------------------------------| 
D--|--0--0-0-0--0-0-0--0-0-0---------------------------| 
A--|--------------------------3-3-3--3--0--0-0--0-0-0--| 
E--|---------------------------------------------------| 
 
 
Chorus: (Let my heart go...)               x3 
G--|-----------------------------------------| 
D--|--0--------------------------------------| 
A--|-----3--0--------------------------------| 
E--|-----------3--3-3--3-3-3--3--3-3--3-3-3--| 
 
(So let this heart be still) 
G--|-----------------| 
D--|--0--------------| 
A--|-----3--1-----0--| 
E--|-----------3-----| 
 

	  

Search Paypal
auto scroll beats size up size down change color hide chords drawings
tab show chords e-chords YouTube Clip e-chords hide all tabs e-chords go to top tab