Metallica

home > Metallica

I Disappear Bass Tab

Metallica

Difficulty: nolevelnolevel

by eduardo%5Flyvio

tuner correct add songbook print version text version save to e-mail
chordsukulelecavacokeyboardtabbassdrumsharmonicsflute Guitar Pro
chords

I Disappear

  		Tune Down 1/2 Step down 
 
 
Intro                                          
 
|---------------------|----------|     Mid Intro     |--------------| 
|---------------------|----------|                   |--------------| 
|---------------------|----------|                   |--------------| 
|-0-00-0-00-0-00-0-00-|-7~-5-0-7~|                   |-5-0-7~-5-0-7~| 
 
Fill 1 
 
|-----------------------------------------| 
|-----------------------------------------| 
|-----------------------------------------| 
|0-0-0-0-5-0-0-0-0-5-0-0-0-0-5-0-0-0-0-3-3| 
 
Verse 
|-----------------------------| 
|-----------------------------| 
|-7--7-7-7--7-7-7--7-7-7-----7| 
|-0--0-0-0--0-0-0--0-0-0-3-3-0| 
 
Bridge 
 
|---------------------------------| 
|---------------------------------| 
|---------------10----------------| 
|-3-3\2-2/5-5/7----10-12-------\19| 
 
Fill 2 
 
|------| 
|------| 
|------| 
|-3-2-1| 
 
Chorus                           
 
|-----------------------------------|-----------------------------------| 
|-----------------------------------|-----------------------------------| 
|-----------------------------------|-----------------------10----12----| 
|2-2-3-3/7-8-8-8-8-8-8\5-5-5-5-5\3-0|2-2-3-3/7-8-8-8-8-8-8-8--8/10--10-5| 
 
 
Pre-Solo 
|------------|--------| 
|------------|--------| 
|-7-77-77-77-|--------| 
|-0-00-00-00-|7-8-5-3-| 
 
Solo 
|----------------------------------------------------------| 
|----------------------------------------------------------| 
|------------------------------------7p5-5-7p5-5-7p5-7p5-5-| 
|-0-0-0-0-5-5-0-0-0-0-5-5-0-0-0-0-5-5----------------------| 
 
Post-Solo 
|--------------------------------------------------| 
|--------------------------------------------------| 
|--------------------------------------------------| 
|-0-4-0--3-3--0-4-0--3-3--0-4-0--3-3--0-4-0--3-2-1-| 
 
End 
 
|------------| 
|------------| 
|-7-77-77-77-| 
|-0-00-00-00-| 
 
Order: 
 
Intro X1 
Mid Intro X4 
Fill1 X1 
Verse X2 
Bridge X1 
Verse X1 
Fill 2 X1 
Chorus X1 
Fill1 X1 
Verse X2 
Bridge X1 
Verse  X1 
Fill 2 X1 
Chorus X2 
Pre Solo X1 
Solo X2 
Post Solo X2 
Chorus X2 
End X1 
 
 

	  

Search Paypal
auto scroll beats size up size down change color hide chords drawings
tab show chords e-chords YouTube Clip e-chords hide all tabs e-chords go to top tab