Metallica

home > Metallica

Hero of the day Bass Tab

Metallica

Difficulty: AdvancedAdvanced

by eduardo%5Flyvio

tuner correct add songbook print version text version save to e-mail
chordsukulelecavacokeyboardtabbassdrummharmonicsflute Guitar Pro
chords

Hero of the day

Year: 1996 - Album: S&M

  		G-----------2---2\(4)---2\(5)---2\(7)--------------------- 
D--------------------------------------------------------- 
A----0---0----2-------4-------5-------7-7-7--7-7-7-7-7-7-- 
E--2---2-------------------------------------------------- 
 
 
G----------------    G---------------- 
D----------------    D---------------- 
A----------------    A---------------- 
E--2-2--2-2-2-2--    E--3-3--3-3-3-3-- 
 
 
 

	  

Search Paypal
auto scroll beats size up size down change color hide chords drawings
tab show chords e-chords YouTube Clip e-chords hide all tabs e-chords go to top tab