Metallica

home > Metallica

Cliff Burton (Solo no Woodstock 1983) Bass Tab

Metallica

Difficulty: ExpertExpert

by eduardo%5Flyvio

tuner correct add songbook print version text version save to e-mail
chordsukulelecavacokeyboardtabbassdrumsharmonicsflute Guitar Pro
chords

Cliff Burton (Solo no Woodstock 1983)

  		Esse som é realmente muito legal! 
G-----------------------------------5-6-7-6------| 
D--------------------5-6-7-6----3-7---------7-3--| 
A-----5-6-7-6----3-7---------7-3-----------------| 
E-3-7---------7-3--------------------------------| 
NEXT BAR 
G--------------------------------------------------------------------------| 
D--------------------------------------------------------------------------| 
A--------------------------------------------------------------------------| 
E-R1--R-1--R1--R1--R1--R1-2R1--2R1--2R1--2R12--2R12--2R12--2R1232R-2R1232R-| 
NEXT HE PLAYS THE NATIONAL ANTHEM AND THEN....(MUITOOOOOOO DIFÍCILLLLLLLLLLL!!!!!!!) 
G---X--XX-XX-X-X-XXXX-X---X-X-X-X--XXX-XX-XX-X-XX----X----X-X-X-X----X-X----| 
D--X----X----X----X----X----X----X----X----X----X----X----X-X-X-X---X-X-X---| 
A----XX--X-X-X--X-X-XXX-XXX-X-X--X-XXX-X-XX-XX-X-X-XX---X-X--X--X--X--X--X--| 
E-X-XX-XX-XX-XX-XX-XX-XX-XX-XX-XX-X-XX-XX-XX-XXXX-XX--X-X-X-X-X-X-X-X-X--XX-| 
*** Isto é tocado muito rápido! 
 
 

	  

Search Paypal
auto scroll beats size up size down change color hide chords drawings
tab show chords e-chords YouTube Clip e-chords hide all tabs e-chords go to top tab