Metallica

home > Metallica

Blackened Bass Tab

Metallica

Difficulty: ExpertExpert

by eduardo%5Flyvio

tuner correct add songbook print version text version save to e-mail
chordsukulelecavacokeyboardtabbassdrummharmonicsflute Guitar Pro
chords

Blackened

Year: 1988 - Album: ...And Justice for All

  		  INTRO         *backwards bass guitar 
 |--------------------------------------------------------------------| 
 |--------------------------------------------------------------------| 
 |--------------------7------------------------------------7----------| 
 |---7--------8-------0--------7--------8--------10--------0----------| 
 
 |--------------------------------------------------------------------| 
 |--------------------------------------------------------------------| 
 |-9--10-----------------------7----------------------------------7---| 
 |--------7--8---------10------0--------7-------8-------10--------0---| 
 
 |-----------------------------------|-----| 
 |-----------------------------------|-----| 
 |--1------2--3-3--------------------|-----| 
 |----2--3--------1-0----------0-----|-----| 
 
 |--------------------|---|------------------------------| 
 |--------------------|---|------------------------------| 
 |--------------------|---|---7---7---7-8-7---7---7---7--| 
 |--3--3-3-3--0--2--2-|---|-0---0---0-------0---0---6----| 
 
 |-------------------------------------------------------------------| 
 |-------------------------------------------------------------------| 
 |---7---7---7-8-7-1-----2--3-3-----------------------1------2--1----| 
 |-0---0---0---------2-3--------1---------0-0-0-0-0-0---2--3------3--| 
 
  1,2,3 VERSES...................2X's.................................... 
 |----------------------------------------------------------------------- 
 |----------------------------------------------------------------------- 
 |---------------1-----2-1-------------------1-----2-1------------------- 
 |-0--0--0-0-0-0---2-3-----3---0-0-0-0--0-0----2-3-----3---0--0-0-0-0-0-- 
 ............... 
 ---------------|  |-------------------------| 
 ---------------|  |-------------------------| 
 --1-----1------|  |-------------1-----1-----| 
 ----2-3---2-3--|  |-0-0-0-0-0-0---2-3---2-3-| 
 
 |------------------------------------------------------------| 
 |------------------------------------------------------------| 
 |-------------1-----2-3-3----------7---7---7-8-7---7---7---7-| 
 |-3-3-3-3-3-3---2-3-------1------0---0---0-------0---0---6---| 
 
 |---------------------------------------------------------------------| 
 |---------------------------------------------------------------------| 
 |---7---7----7-8-7--1-----2--3-3-------7---7----7-8-7---7---7---7-----| 
 |-0---0----0----------2-3--------1---0---0----0-------0---0---6---0000| 
 
   Chorus.............................................................. 
 |---------------------------------------------------------------------| 
 |---------------------------------------------------------------------| 
 |--7---------------5--------3-----------------------------------------| 
 |--0-----------5-5----3--3------3-3---2---2-2-2-2-0--3-3-3------3-3-3-| 
 
 ....................................................................... 
 |----------------------------------------------------------------------| 
 |----------------------------------------------------------------------| 
 |-7------------5---------3--3------------------------------------------| 
 |-0--------5-5-----3--3-------3--2--------2-2-2-2-0-3----3-3-3-0---2--2| 
  .......................................................... 
 |-----|----------------------------------------------------| 
 |-----|----------------------------------------------------| 
 |-----|----------------------------------------------------| 
 |-----|-3-3-3-3--0--2-2-----1--1----0------(0)---------(0)-| 
 
 |---------------------------------------------------------------| 
 |---------------------------------------------------------------| 
 |-------------------------------------------------6--6----6--6--| 
 |-0--0-0-0-0-0-0-0--0-0-0-0--0-0-0--0-0-0-0--5--6---------------| 
 
 |------------------------------------------------------| 
 |------------------------------------------------------| 
 |-------7----------------8-7----------------7----------| 
 |-0-5-6---0-0-0-0---5-6------0-0-0-0--0-5-6---0-0-0-0--| 
 
 |----------------------------------------------------------------------- 
 |-----------------------------------8----------------------------------- 
 |-----6----6-6--------7---------7-----7---------------7----------------- 
 |-5-6-----------0-5-6---0-0-0-0---6-----0-0-0-0-0-5-6---0-0-0-0----6-0-- 
 
 ------------------| 
 ------------------| 
 -6-6-6-6-6-6---7--| 
 -------------0----| 
 
 |----------------------------------------------------------------------| 
 |----------------------------------------------------------------------| 
 |----7-7-7-----------7-7-7----7--------7-7-7---7-5---6-----6-6-5-7-----| 
 |-0--------5-7-6-0---------5----6--0---------0----------------------6--| 
 
 |----------------------------------------------------------------------| 
 |----------------------------------------------------------------------| 
 |----7-7-7-----------7-7-7----7--------7-7-7---7--5--6----6-6-6-6-----2| 
 |-0--------5-7-6-0---------5----6--0---------0--------------------0-2--| 
 
 |----------------------------------------------------------------------| 
 |---4-----------------5-4------------------4---------------------------| 
 |-3----------------2-------------------2-3----------3-2----------------| 
 |------2-2-2-2-0-2---------2--2--2-0-2--------2-2-2-----3---1--1-1-1-1-| 
 
 |------------------------------------------------------------------| 
 |------------------------------------------------------------------| 
 |-------7--------------8-7----------------7--------------7---------| 
 |-0-5-6---0-0-0-0--5-6-----0-0-0-0-0-5-6----0-0-0-0--5-6-----------| 
 
 |---------------------------------------------------------------------| 
 |---------------------8-----------------------------------------------| 
 |-------7---------7-----7--------------7--------------6---6---6-----7-| 
 |-0-5-6---0-0-0-0---6-----0-0-0-0-0-5-6--0-0-0-0--6-0---4---4---4-0---| 
 
 |----------------------------------------------------------------| 
 |----------------------------------------------------------------| 
 |-----7-7-7----------7-7-7---7-------7-7-7---7-5-6-----6-6-5-7---| 
 |--0--------5-7-6-0--------5---6--0--------0-------------------6-| 
 
 |---------------------------------------------------------------| 
 |---------------------------------------------------------------| 
 |----7-7-7----------7-7-7---7------7-7-7---7-5-6---6-6-6------2-| 
 |-0--------5-7-6-0--------5---6-0--------0---------------0-2----| 
 
 |-----------------------------------------------------------| 
 |---4-------------5-4---------------4-----------------------| 
 |-3-------------2---------------2-3---------3-2-----------8-| 
 |-----2-2-2-0-2-------2-2-2-0-2-------2-2-2-----3-1---------| 
 
 |-------------------------------------------------------------| 
 |-----9-----7-------------------------------------------------| 
 |-7------7--5---3--3--2----------7--0--5---3--3---2--2--------|2X's 
 |------------------------3-2--0--------------------------3--2-| 
 
   GUITAR SOLO.......6X's................ 
 |---------------------------------------|-----------------------------| 
 |---------------------------------------|-----------------------------| 
 |--------------------------------9---10-|-----------------------------| 
 |-0-3-0--2-0-3-0-2-0-3-0-2-0-3-7---8----|-0-3-0-2-0-3-0-2-0-3-0-2-0-3-| 
 
 |----------------|--|-------------| 
 |----------------|--|-------------| 
 |----------------|--|---------19\-| 
 |-3--3-3-3-0-2-2-|--|-1-1---------| 
 
 |------------------------------------------------------------------ 
 |------------------------------------------------------------------ 
 |---8---8---8---8---7---7-----5H7---7---7---7---7---5---5---5---5-- 
 |-0---0---0---0---0---0---0-0-----0---0---0---0---0---0---0---0---- 
 
 --------------------------------------------------| 
 --------------------------------------------------| 
 ----8---8---8---8---7---7-----5H7-----------------| 
 --0---0---0---0---0---0---0-0-----0-0-0-0-0-0-0-0-| 
 
 |---------------------------------------------------| 
 |---------------------------------------------------| 
 |-7----------5-----3--------------------------------|2X's 
 |-0------5-5---3-3---3-3-2--2-2-2-2-0--3-3-3--3-3-3-| 
  ................................2X's................................ 
 |--------------------------------------------------------------------| 
 |--------------------------------------------------------------------| 
 |---7---7---7---7---7---7---7---7---5---5---5---5---10---10---5----5-| 
 |-0---0---0---6---5---5---5---5---3---3---3---3---8----8----3----3---| 
 
 |------------|  |------------------------------------------------------| 
 |------------|  |------------------------------------------------------| 
 |------------|  |--7---7---7-8-7---7---7---7---7---7---7-8-7-1-----2---| 
 |-3-3-3-3-3/-|  |0---0---0-------0---0---6---0---0---0----------2-3--1-| 
                     .....................2X'S.......................... 
 |--------------|   |---------------------------------------------------| 
 |--------------|   |---------------------------------------------------| 
 |--------------|   |7--------5------3----------------------------------| 
 |-3--3-3-3-0-2-|   |0----5-5----3-3-----3-3--2---2-2-2-2-0--3-3-3-3-3-3| 
 
 |----------------------------------------------------------------| 
 |----------------------------------------------------------------| 
 |-------------------------------------7---7---7-8-7---7---7------| 
 |-0--2--2---3-3-3-3-0-2-2---1---1---0---0---0-------0---0----6-0-| 
 
 

	  

Search Paypal
auto scroll beats size up size down change color hide chords drawings
tab show chords e-chords YouTube Clip e-chords hide all tabs e-chords go to top tab