Metallica

home > Metallica

Ain't My Bitch Bass Tab

Metallica

Difficulty: EasyEasy

by eduardo%5Flyvio

tuner correct add songbook print version text version save to e-mail
chordsukulelecavacokeyboardtabbassdrumsharmonicsflute Guitar Pro
chords

Ain't My Bitch

Year: 1996 - Album: Load

  		|-----------------------------------------------------------| 
|-----------------------------------------------------------| 
|-----------------------------------------------------------| 
|-0-0-(0)-0-3---0-0----------------------0-0-(0)-0-0-3---0--| 
 
  BASS FIG 1                                          END FIG 1 
|--------------------------|-%---|------------------------------| 
|--------------------------|--%--|------------------------------| 
|--------------------------|-%---|------------------------------| 
|-0--0--0--0--0--0--0--0-0-|--%--|-0-0-0-0-0-0-0-(0)-0-3---5-3--| 
 
|----------------------------------------------------------------------- 
|----------------------------------------------------------------------- 
|-----------0-2/5--7-7-7-7-7-7-7-7-7--7-7-7-7-7-7-7-7-7-7-7-7-7---7----- 
|-(0)-0-3-------------------------------------------------------0---0-3- 
 
------------------------------------------------------------------------ 
------------------------------------------------------------------------ 
----------------7---7---7---------7---7---7------7-7-7-7-7-7--7--------- 
-3--3--5-3--0-0---0---0---0-0-0-0---0---0---0--0-------------0--0-3-3-3- 
 
---------| 
---------| 
---------| 
-/7-5-3--| 
 
  1,2,3 VERSES W/BASS FIG 1 
 
|----------------------------------------------------------------------- 
|----------------------------------------------------------------------- 
|----------------------------------------------------------------------- 
|-(0)-0-3---3-3-5-3-5-5-5-5-5-5-5-3-3-5-5-5-5-5-5-5-5-3-3-5-5-5-5-5-5-0- 
 
------------------------------------------------------------------------ 
------------------------------------------------------------------------ 
----------------------------------------------------------7------------- 
-5---5-3---3\---0-------0------0--------0---0---------0---0-----7\------ 
 
                                     Chorus  & BASS FIG 2        
-----------------------------------|------------------------------------ 
-----------------------------------|------------------------------------ 
-----------------------------------|------------------------------------ 
-0-0-0-0-0-0-0-0-0-0-0-0-0-0-0-0-7-|-7-7-7-7-7-0-0-5-5-5-5-5---5-0-0-3-- 
                                            END FIG 2    
------------------------------------------------|--%---|---------------- 
------------------------------------------------|---&--|---------------- 
------------------------------------------------|--^---|---------------- 
-3-3-3-3-3-2-1--0-0-0-0-3P0-0-0-0-0-3P0-0-0-3P0-|---$--|-7--7-7-7-7-7-7- 
 
------------------------------------------------------------------------ 
------------------------------------------------------------------------ 
------------------------------------------------------------------------ 
-5-5-5-5-5-5-5-5-3-3-3-3-3-3-2-1-0----0-0-0-0-0-0-0-0-0-0-0-0-0-0-0-0-0- 
 
------------------------------------------------------------------------ 
------------------------------------------------------------------------ 
----------------0-2/5--7-7-7-7-7-7-7-7-7-7-7---7---7---7---------7-7-7-- 
-0-0-(0)-0-3---------------------------------0---0---0---0-0-0-0-------- 
 
------------------------------------------------------------------------ 
------------------------------------------------------------------------ 
-----7------------------------------------------------------------------ 
-0-0---0-3-----(3)--/7-5-3-----------0-0-(0)-0-3-----(3)-0---0-0-0-0-0-- 
 
------------------------------------------------------------------------ 
------------------------------------------------------------------------ 
-------------------------------------7---------------------------------- 
-0-0-0-------------0-0-0-0-0-0-0-0-0-0--0-0-0-0-0-0-0-0-0-0-0-0-0-0-0-0- 
 
------------------------------------------------------------------------ 
------------------------------------------------------------------------ 
--------------------7--------7-------7---------7-----7----7----7---7--7- 
-0-0-0-3--3/5-3-0-0---0-0-0-0--0-0-0---0-0-0-0---0-0---0-0--0-0--0---0-- 
 
                     GUITAR SOLO 
-------------------|---------------------------------------------------- 
-------------------|-----4---------4-----------------------------4----4- 
-----7-7-7-7-5-----|---------------------------------------------------- 
-0-0-----------7-5-|-2-2---2-2-2-2----2------2-2-5-5-5-5-7-0-2-2---2-2-- 
 
------------------------------------------------| 
---4-------4-4-4-4---4--------------------------| 
------------------------------------------------| 
-2---2-2-2---------2---2--------2-2-5-5-5-5-7-0-| 
 
|----------------------------------------------------------------------- 
|-----6-----6------------------6----6-----------------------------6----6 
|----------------------------------------------------------------------- 
|-4-4---4-4---4-4-4--------4-4---4-4--4-4-4-4--4-4-4-7--7-9P7\-4-4--4-4- 
 
------------------------------------------------------------------------ 
------------------------------------------------------------------------ 
------------------------------------------------------------------------ 
-4-4-4-----------------7-7-7-7\-0--(0)--(0)--(0)--(0)--(0)--(0)--(0)-(0) 
 
------------------------------------------------------------------------ 
-------------------------------------------------4---------3--3--------- 
--------7-------7-7----------------5-5---------------------------------- 
-/12\---0-----0-----3-------3-5/7-------7--2--2-2--2--1-1-1--1--1-0-0-0- 
 
-----------|---&---| 
-----------|[email protected]| 
-----------|---#---| 
-0-0-0-0-0-|--*----| 
 
     Chorus W/BASS FIG 2 (4X's) 
 
    BASS FIG 3                                          END FIG 3 
|------------------------------------------------------------------| 
|------------------------------------------------------------------| 
|------------------------------------------------------------------| 
|-7-7-7-7-7-7-0-0-5-5-5-5-5--5-0-0-3-3-3-3-3-3-2-1-0-0-0-0-0-0-0-0-| 
 
  BASS FIG 3 (2 1/2X's) 
 
|-----------------------------------------------------------------| 
|-----------------------------------------------------------------| 
|-----------------------------------------------------------------| 
|-3-3-3-3-3-3-3-2-1-0-3-2-1-0-3-2-1-0-3-2-1--------0-0-(0)-0-3-0--| 
 
 

	  

Search Paypal
auto scroll beats size up size down change color hide chords drawings
tab show chords e-chords YouTube Clip e-chords hide all tabs e-chords go to top tab