Meghan Trainor

home > Meghan Trainor

All About That Bass Bass Tab

Meghan Trainor

Difficulty: BeginnerBeginner

by VsWorld

tuner correct add songbook print version text version save to e-mail
chordsukulelecavacokeyboardtabbassdrumsharmonicsflute Guitar Pro
chords

All About That Bass

  		
Intro: 

G|-----------------------------------------------------------| 
D|--------2--------------4-----------------------------2-----| 
A|-0--3h4---4-0---2--4h5---5-2----------2-------0--3h4---4-0-| 
E|-------------------------------0--3h4---4-0----------------| 

Verse: 

G|--------------------------------------------------------------------------| 
D|--------2----------2---------4----------4----------4----------------------| 
A|-0--3h4---4-0--3h4----2--4h5---5-2--4h5---5-2--4h5-----------2----------2-| 
E|------------------------------------------------------0--3h4---4-0--3h4---| 

G|--------------------------| 
D|--------2-----------------| 
A|-0--3h4---1-0--3h4------0-| 
E|--------------------0-4---| 

Chorus: 

G|--------------------------------------------------| 
D|--------2----------2---2---------4----------4---4-| 
A|-0--3h4---4-0--3h4---4----2--4h5---5-2--4h5---5---| 
E|--------------------------------------------------| 

G|---------------------------------------------------| 
D|----------------------------------2----------2---2-| 
A|--------2----------2---2---0--3h4---4-0--3h4---4---| 
E|-0--3h4---4-0--3h4---4-----------------------------| 

G|------------------------------------------------------------------| 
D|-------------2----------2--------4----------4---------------------| 
A|-0----0--3h4---4-0--3h4---2--4h5---5-2--4h5----------2----------2-| 
E|----------------------------------------------0--3h4---4-0--3h4---| 

end: 

G|-------------------------2-| 
D|--------2----------2-4-2---| 
A|-0--3h4---4-0--3h4---------| 
E|---------------------------| 

	  

Search Paypal
auto scroll beats size up size down change color hide chords drawings
tab show chords e-chords YouTube Clip e-chords hide all tabs e-chords go to top tab