Mcfly

Unsaid Things Live

Mcfly

bass

by  PAULANTUNES

save to print version add songbook text version e-mail correct tuner
chordsukulelecavacokeyboardtabbassdrumsharmonicaflute Guitar Pro
close

there isn't a video lesson for this song

chords

Unsaid Things Live

	  		McFly (For Bass) 
Unsaid Things (Wonderland DVD)  -Live In Manchester- 
Tuning: Standard 
Transcribed by Soch Hean 


Verse: 
|---------------------------------------------------------------------------------| 
|-----------5------5--------------------------------------------------------------| 
|----------------------2--2-2----2-----2==s9--7--7-7----7--7---2-2--3--3---3--5-5-| 
|-3--3-3--3----3-3-------------3-----3----------------7------------------3--------| 

|---------------------------------------------------------------------------------| 
|-----------5------5--------------------------------------------------------------| 
|----------------------2--2-2----2-----2==s9--7--7-7----7--7---2-2--3--3---3--5-5-| 
|-3--3-3--3----3-3-------------3-----3----------------7------------------3--------| 

Bridge: 
|-------------------------------------------------------------------------| 
|-------------------------------------------------------------------------| 
|----7--------------3--------5--5-5----5--5--7-7--------------------------| 
|-5-----5--5-5-3-1-----1--0----------5-----------3--3--3--3s15-15-15-15---| 

Chorus: 
|----------------------------------------------------------------------------| 
|---------2-2-2-2-----------3-----3------------------------------------------| 
|-3-3-3-3----------------------------5--5-5----5--5-5-7----------------------| 
|------------------1--1-1-1---1-1------------5-----------3-3-3-3s15-15-15-15-| 

|---------------------------------------------------| 
|---------2-2-2-2-----------3-----3-----------------| 
|-3-3-3-3----------------------------5-5-5-5--------| 
|------------------1--1-1-1---1-1-------------3-----| 

|----------------------| 
|----------------------| 
|-3--3-5-7--5----------| 
|--------------7-5-3---| 

Verse 2: 
|---------------------------------------------------------------------------| 
|-------------5------5--9--7------------------------------------------------| 
|-----------------------------10--9---7-7---7--7--2-2--3--3---3--5-5--------| 
|-3--3-3-3--3----3-3----------------------7-----------------3---------------| 

|---------------------------------------------------------------------------------| 
|-----------5------5--------------------------------------------------------------| 
|----------------------2--2-2----2-----2==s9--7--7-7----7--7---2-2--3--3---3--5-5-| 
|-3--3-3--3----3-3-------------3-----3----------------7------------------3--------| 

Bridge: 
|--------------------------------------------------------------------| 
|--------------------------------------------------------------------| 
|----7-----------3--------5--5-5----5--5-5---------------------------| 
|-5-----5--3--1-----1--0----------5---------3--3--3--3--3--3--3--3---| 

Chorus: 
|----------------------------------------------------------------------------| 
|---------2-2-2-2-----------3-----3------------------------------------------| 
|-3-3-3-3----------------------------5--5-5----5--5-5-7----------------------| 
|------------------1--1-1-1---1-1------------5-----------3-3-3-3s15-15-15-15-| 



|---------------------------------------------------| 
|---------2-2-2-2-----------3-----3-----------------| 
|-3-3-3-3----------------------------5-5-5-5--------| 
|------------------1--1-1-1---1-1-------------3-----| 

|----------------------| 
|----------------------| 
|-3--3-5-7--5----------| 
|--------------7-5-3---| 

(And I want her to know...) 
|--------------------------------------------------------------------| 
|---------------------------------------------3---------12-12-12-12--| 
|--------------------7-7----7----7-----------------------------------| 
|-3--3s15--2--2s14--------7----7-----1--1-1-----1-1-1----------------| 

|---------------------------------| 
|-10-10-10-10-9-9-9-9-9-9-9-9-----| 
|------------------------------5--| 
|---------------------------------| 

Guitar Solo: 
|-----------------------------------------------------------------------| 
|-----------------------------------------------------------------------| 
|----7--------------3--------5--5-5----5--5-7---------------------------| 
|-5-----5--5-5-3-1-----1--0----------5---------3-3-3-3s15-15-15-15------| 

Chorus: 
|---------------------------------------------------------------------------| 
|-------2------------------3-----3------------------------------------------| 
|-3---------------------------------5--5-5----5--5-5-7----------------------| 
|----------3s15\--1--1-1-1---1-1------------5-----------3-3-3-3s15-15-15-15-| 

|------------------------------------------------| 
|---------2-2-2-2-----------3-----3--------------| 
|-3-3-3-3----------------------------5------8----| 
|------------------1--1-1-1---1-1----------------| 

Bass Outro: 
|----------5--5s7--5-----------------------| 
|-------5-------------7--5-----5-----------| 
|-3-------------------------7-----5--3-----| 
|------------------------------------------| 

Legend: 
s - slide 


		  

auto scroll beats size up size down change color hide chords drawings
tab show chords e-chords YouTube Clip e-chords hide all tabs e-chords go to top tab

share