MC Marcinho

Glamurosa

MC Marcinho

bass Easy easy

by  REDNIRJAM

save to print version add songbook text version e-mail correct tuner
chordsukulelecavacokeyboardtabbassdrumsharmonicaflute Guitar Pro
close

there isn't a video lesson for this song

chords

Glamurosa

	  		Glamurosa 
Mc Marcinho 
 
 
g------------------------------------ 
d------------------------------------ 
a--7-7-----------------2-2--2--2--4-- 2x 
e----------5-5--5-5------------------ 
 
g----------------------------------- 
d----------------------------------- 
a-4-4---2-2--2-2--------------------  
e--------------------5-5---5-5--7--- 
toca duas vezes o primeiro depois vai alternando  
cada uma vez 
 
qualquer duvida meu email eh [email protected] ou bol.com.br  
 

		  

auto scroll beats size up size down change color hide chords drawings
tab show chords e-chords YouTube Clip e-chords hide all tabs e-chords go to top tab

share