Matthew Sweet

Sick Of Myself

Matthew Sweet

bass

by  TARIKIKE

save to print version add songbook text version e-mail correct tuner
chordsukulelecavacokeyboardtabbassdrumsharmonicaflute Guitar Pro
close

there isn't a video lesson for this song

chords

Sick Of Myself

	  		
Intro 
       (Rest x4)                    ( x2 ) 
G |-----------------||-----------------|-----------------| 
D |-----------------||-----------------|-----------------| 
A |-----------------||-2---r-----------|-2---r-----------| 
E |-r---------------||-------2-2-r-0-r-|-------2-2-r-0-r-| 
    1 & 2 & 3 & 4 &    1 & 2 & 3 & 4 &   1 & 2 & 3 & 4 & 

verse 1 
                                                      ( x3 ) 
G |-----------------|-----------------||-----------------|-----------------| 
D |-----------------|-----------------||-----------------|-----------------| 
A |-2---r-----------|-2---r-----------||-2---r-----------|-2---r-----------| 
E |-------2-2-r-0-r-|-------2-2-r-0-2-||-------2-2-r-0-r-|-------2-2-r-0-r-| 
    1 & 2 & 3 & 4 &   1 & 2 & 3 & 4 &    1 & 2 & 3 & 4 &   1 & 2 & 3 & 4 & 

Pre-Chorus 
G |-----------------|-----------------|-----------------|-----------------| 
D |-----------------|-----------------|-----------------|-----------------| 
A |-2---2---2-2-2---|-----------------|---------------2-|(2)2-2-2-2---2---| 
E |---------------2-|(2)2-2---2-2-2-1-|-0---0---0-0-0---|-----------2---2-| 
    1 & 2 & 3 & 4 &   1 & 2 & 3 & 4 &   1 & 2 & 3 & 4 &   1 & 2 & 3 & 4 & 


Chorus 1 (Repeat 1st staff x2):                          _________________ _________________ 
                                                        /1       s        /2 
G |-----------------|-----------------|-----------------|-----------------|-----------------| 
D |-----------------|-----------------|-----------------|-----------------|-----------------| 
A |-----------------|-------------2-4-|-2---2---2-2-----|-------------7---|-----7-------7---| 
E |-0---0---0-0-0-2-|(2)2-2---2-4-----|-------------2-0-|(0)0-0--00-7---7-|(0)7---7-0-7---7-| 
    1 & 2 & 3 & 4 &   1 & 2 & 3 & 4 &   1 & 2 & 3 & 4 &   1 & 2 & 3 & 4 &   1 & 2 & 3 & 4 & 

G |-----------------|-----------------| 
D |-----------------|-----------------| 
A |-----------------|-----------------| 
E |-0---0---0-0-0-2-|(2)2-2-2-2-2-2-2-| 
    1 & 2 & 3 & 4 &   1 & 2 & 3 & 4 & 

PRE-VERSE 
                ( x2 ) 
G |-----------------|-----------------| 
D |-----------------|-----------------| 
A |-2---r-----------|-2---r-----------| 
E |-------2-2-r-0-r-|-------2-2-r-0-r-| 
    1 & 2 & 3 & 4 &   1 & 2 & 3 & 4 & 

verse 2 
                 ( x3 ) 
G |-----------------|-----------------||-----------------|-----------------| 
D |-----------------|-----------------||-----------------|-----------------| 
A |-2---r-----------|-2---r-----------||-2---r-----------|-2---r-----2-2-r-| 
E |-------2-2-r-0-r-|-------2-2-r-0-r-||-------2-2-r-0-r-|-------2-2-------| 
    1 & 2 & 3 & 4 &   1 & 2 & 3 & 4 &    1 & 2 & 3 & 4 &   1 & 2 & 3 & 4 & 

Pre-Chorus 
G |-----------------|-----------------|-----------------|-----------------| 
D |-----------------|-----------------|-----------------|-----------------| 
A |-2---2---2-2-2---|-----------------|---------------2-|(2)2-2-2-2---2---| 
E |---------------2-|(2)2-2---2-2-2-1-|-0---0---0-0-0---|-----------2---2-| 
    1 & 2 & 3 & 4 &   1 & 2 & 3 & 4 &   1 & 2 & 3 & 4 &   1 & 2 & 3 & 4 & 


Chorus 2 (Repeat 1st staff x2):                          _________________ _________________ 
                                                        /1       s        /2 
G |-----------------|-----------------|-----------------|-----------------|-----------------| 
D |-----------------|-----------------|-----------------|-----------------|-----------------| 
A |-----------------|-------------2-4-|-2---2---2-2-----|---7-7-------7---|-----7-------7---| 
E |-0---0---0-0-0-2-|(2)2-2---2-4-----|-------------2-0-|(0)-----00-7---7-|(0)7-----0-7---7-| 
    1 & 2 & 3 & 4 &   1 & 2 & 3 & 4 &   1 & 2 & 3 & 4 &   1 & 2 & 3 & 4 &   1 & 2 & 3 & 4 & 

G |-----------------|-----------------|-----------------|-----------------| 
D |-----------------|-----------------|---------------6-|(6)6-------------| 
A |-----------------|-----------------|-------6---6-6---|-----------------| 
E |-0---0---0-0-0-2-|(2)2-2---2-2-2-3-|-4-4-4-----------|-------2-4-4-4-2-| 
    1 & 2 & 3 & 4 &   1 & 2 & 3 & 4 &   1 & 2 & 3 & 4 &   1 & 2 & 3 & 4 & 

G |-----------------|-----------------| 
D |-----------------|-----------------| 
A |-----------------|-----------------| 
E |-0---0---0-0-0-2-|(2)2-2-2-2-2-2-2-| 
    1 & 2 & 3 & 4 &   1 & 2 & 3 & 4 & 

GUITAR SOLO 
                ( x4 ) 
G |-----------------|-----------------| 
D |-----------------|-----------------| 
A |-2---r-----------|-2---r-----------| 
E |-------2-2-r-0-r-|-------2-2-r-0-r-| 
    1 & 2 & 3 & 4 &   1 & 2 & 3 & 4 & 

Pre-Chorus 
G |-----------------|-----------------|-----------------|-----------------| 
D |-----------------|-----------------|-----------------|-----------------| 
A |-2---2---2-2-2---|-----------------|---------------2-|(2)2-2-2-2---2---| 
E |---------------2-|(2)2-2-2-2-2-2-1-|-0---0---0-0-0---|-----------2---2-| 
    1 & 2 & 3 & 4 &   1 & 2 & 3 & 4 &   1 & 2 & 3 & 4 &   1 & 2 & 3 & 4 & 

Chorus 3 (Repeat 1st staff x2):                          _________________ _________________ 
                                                        /1       s        /2 
G |-----------------|-----------------|-----------------|-----------------|-----------------| 
D |-----------------|-----------------|-----------------|-----------------|-----------------| 
A |-----------------|-------------2-4-|-2---2---2-2-----|---------7-------|-----7-------7---| 
E |-0---0---0-0-0-2-|(2)2-2---2-4-----|-------------2-0-|(0)0-0--7--7-0-0-|(0)7---7-0-7---7-| 
    1 & 2 & 3 & 4 &   1 & 2 & 3 & 4 &   1 & 2 & 3 & 4 &   1 & 2 & 3 & 4 &   1 & 2 & 3 & 4 & 

G |-----------------|-----------------|-----------------|-----------------| 
D |-----------------|-----------------|-------------6-6-|(6)6-------------| 
A |-----------------|-----------------|------/6---6-----|-----------------| 
E |-0---0---0-0-0-2-|(2)2-2---2-2-2-3-|-4-4-4-----------|-------4-4-4-4-2-| 
    1 & 2 & 3 & 4 &   1 & 2 & 3 & 4 &   1 & 2 & 3 & 4 &   1 & 2 & 3 & 4 & 

G |-----------------|-----------------| 
D |-----------------|-----------------| 
A |-----------------|-----------------| 
E |-0---0---0-0-0-2-|(2)2-2-2-2-2-2-2-| 
    1 & 2 & 3 & 4 &   1 & 2 & 3 & 4 & 

Outro 
G |-----------------|-----------------|-----------------|-----------------| 
D |-----------------|-----------------|-----------------|-----------------| 
A |-2---r-----------|-2---r-----------|-2---r-----------|-2---------------| 
E |-------2-2-r-0-r-|-------2-2-r-0-r-|-------2-2-r-0-r-|-----------------| 
    1 & 2 & 3 & 4 &   1 & 2 & 3 & 4 &   1 & 2 & 3 & 4 &   1 & 2 & 3 & 4 & 

   6/4 
G |-------------------------|-------------------------| 
D |-------------------------|-------------------------| 
A |-2---2-2-----------------|-r-----------------------| 
E |-------------------------|-------------------------| 
    1 & 2 & 3 & 4 & 5 & 6 &   1 & 2 & 3 & 4 & 5 & 6 & 

   4/4 
G |-----------------|-----------------|-----------------|-----------------| 
D |-----------------|-----------------|-----------------|-----------------| 
A |-2---r-----------|-2---r-----------|-2---r-----------|-2---------------| 
E |-------2-2-r-0-r-|-------2-2-r-0-r-|-------2-2-r-0-r-|-----------------| 
    1 & 2 & 3 & 4 &   1 & 2 & 3 & 4 &   1 & 2 & 3 & 4 &   1 & 2 & 3 & 4 & 

                                                      ( x2 )  
G |-----------------|-----------------||-----------------|-----------------| 
D |-----------------|-----------------||-----------------|-----------------| 
A |(2)--------------|-r-------X-X-2-2-||-2---r-----------|-2---r-----------| 
E |-----------------|-----------------||-------2-2-r-0-r-|-------2-2-r-0-r-| 
    1 & 2 & 3 & 4 &   1 & 2 & 3 & 4 &    1 & 2 & 3 & 4 &   1 & 2 & 3 & 4 & 

   (let ring)                                                         ss 
G |-----------------|-----------------|-----------------|-----------------| 
D |-----------------|-----------------|-----------------|-----------------| 
A |-2---------------|(2)--------------|(2)--------------|(2)----------12r-| 
E |-----------------|-----------------|-----------------|-----------------| 
    1 & 2 & 3 & 4 &   1 & 2 & 3 & 4 &   1 & 2 & 3 & 4 &   1 & 2 & 3 & 4 & 



************************************ 

| r    Release 
| (n)  Ghost note 
| s    Slap 
| /    Slide up 

************************************ 
		  

auto scroll beats size up size down change color hide chords drawings
tab show chords e-chords YouTube Clip e-chords hide all tabs e-chords go to top tab

share