Ludo

Air-conditioned Love

Ludo

bass

by  RENEJUNIOR

save to print version add songbook text version e-mail correct tuner
chordsukulelecavacokeyboardtabbassdrumsharmonicaflute Guitar Pro
close

there isn't a video lesson for this song

chords

Air-conditioned Love

	  		
Intro + (0:10) 

G|----------------------------------------------------------------| 
D|----------------------------------------------------------------| 
A|----------------------------------------------------------------| 
E|-1~--0-1-0-1~-3-33-5~-3-5-8-7-531~--0-1-0-1-3-33-5-3-5-8-1010-5-| 

G|-------------------------|  
D|----------00---2-2-2-3-5-| 
A|--------33---0--0-0------| 
E|-1--11-1-----------------| x10 
(plays like the guitar intro) 

Chorus (01:13): 

G|-----------------------------| 
D|-----------------------------| 
A|----------------------333333-| 
E|-3~-3333/1~-1111555555-------| 

G|----------------------------| 
D|----------------------------| 
A|----------------------------| 
E|-3~3333/1~-1111555555555555-| 

G|---------------------------| 
D|---------------------------| 
A|--------------------333333-| 
E|-3333331111115555555-------|  

G|---------------------------| 
D|---------------------------| 
A|---------------------------| 
E|-3333331111115555555555555-|  

G|---------------------------| 
D|---------------------------| 
A|--------------------333333-| 
E|-3333331111115555555-------|  

G|---------------------------| 
D|---------------------------| 
A|---------------------------| 
E|-3333331111115555555555555-|  

G|-----------------| 
D|-----------------| 
A|-----------------| 
E|-1-111-1-1-111-1-| 

Verse: (1:48) 
G|-------------------------|  
D|----------00---2-2-2-3-5-| 
A|--------33---0--0-0------| 
E|-1--11-1-----------------| x6 

G|----------------------------------------------------------------| 
D|----------------------------------------------------------------| 
A|----------------------------------------------------------------| 
E|-1~--0-1-0-1~-3-33-5~-3-5-8-7-531~--0-1-0-1-3-33-5-3-5-8-1010-5-| 

G|-------------------------|  
D|----------00---2-2-2-3-5-| 
A|--------33---0--0-0------| 
E|-1--11-1-----------------| x2 

Chorus (2): 
G|-----------------------------| 
D|-----------------------------| 
A|----------------------333333-| 
E|-3~-3333/1~-1111555555-------| 

G|----------------------------| 
D|----------------------------| 
A|----------------------------| 
E|-3~3333/1~-1111555555555555-| 

G|---------------------------| 
D|---------------------------| 
A|--------------------333333-| 
E|-3333331111115555555-------|  

G|---------------------------| 
D|---------------------------| 
A|---------------------------| 
E|-3333331111115555555555555-|  

G|---------------------------| 
D|---------------------------| 
A|--------------------333333-| 
E|-3333331111115555555-------|  

G|---------------------------| 
D|---------------------------| 
A|---------------------------| 
E|-3333331111115555555555555-|  

Ending 
(03:10) 
G|--------------------------| 
D|--------------------------| 
A|-333333333333-------------| 
E|-------------111111111111-| x3 

G|--------------------------| 
D|--------------------------| 
A|-333333333333-------------| 
E|-------------111111333333-| 
  
G|--------------------------| 
D|--------------------------| 
A|-333333333333-------------| 
E|-------------111111111111-| x3 

G|--------------------------| 
D|--------------------------| 
A|-333333333333-------------| 
E|-------------111111333333-| 

G|--------------------------| 
D|--------------------------| 
A|-333333333333-------------| 
E|-------------111111111111-|  

G|--------------------------| 
D|--------------------------| 
A|-333333333333-------------| 
E|-------------111111333333-|  
		  

See also:

bass Paramore - The Only Exception bass Red Hot Chili Peppers - Bass(solo flea) bass Ben Harper - Brown Eyed Blues bass Ben Harper - Ground On Down bass Red Hot Chili Peppers - Buckle Down bass Ben Harper - Excuse Me Mr
e-chords

Other versions:

bass Ludo - Air-conditioned Love
auto scroll beats size up size down change color hide chords drawings
tab show chords e-chords YouTube Clip e-chords hide all tabs e-chords go to top tab

share