Louise Attaque

L Imposture

Louise Attaque

bass

by  JOAOEWERTON

save to print version add songbook text version e-mail correct tuner
chordsukulelecavacokeyboardtabbassdrumsharmonicaflute Guitar Pro
close

there isn't a video lesson for this song

chords

L Imposture

	  		
"A l'apogée..." 
G|-----------------|----------------|-----------------|----------------|----------------|----------------| 
D|---------4---4---|----7------7-7--|---------4---4---|----7------7-7--|----------------|----------------| 
A|-----5-5---5---5-|----------------|-----5-5---5---5-|----------------|----------------|----------------| 
E|-7-7-------------|5------5--------|-7-7-------------|5------5--------|--7-7------5-5--|--7-7------5-5--| 
  
                                                                         
                                                                       "Dans le même style..." 
G|-----------------|----------------|-----------------|----------------|----------------|----------------| 
D|---------4---4---|----7-------7-7-|---------4---4---|----7-------7-7-|----------------|----------------| 
A|-----5-5---5---5-|----------------|-----5-5---5---5-|----------------|----------------|----------------| 
E|-7-7-------------|5------5--------|-7-7-------------|5-------5-------|--7-7------5-5--|--7-7------5-5--| 

G|-----------------|----------------|-----------------|----------------|----------------|----------------| 
D|---------4---4---|----7-------7-7-|---------4---4---|----7-------7-7-|----------------|---7---5---7----| 
A|-----5-5---5---5-|----------------|-----5-5---5---5-|----------------|----------------|----------------| 
E|-7-7-------------|5------5--------|-7-7-------------|5-------5-------|--7-------------|----------------| 

G|-----------------|----------------| 
D|-----------------|----7-----------| 
A|-----------------|----------------| 
E|--7--------------|--------3-------| 

0:45                                                                    "Et moi grand chanteur..." 
G|-----------------|----------------|-----------------|----------------|----------------|----------------| 
D|---------4---4---|----7-------7-7-|---------4---4---|----7-------7-7-|----------------|----------------| 
A|-----5-5---5---5-|----------------|-----5-5---5---5-|----------------|----------------|----------------| 
E|-7-7-------------|5------5--------|-7-7-------------|5-------5-------|--7-7------5-5--|--7-7------5-5--| 

G|-----------------|----------------|-----------------|----------------|----------------|----------------| 
D|---------4---4---|----7-------7-7-|---------4---4---|----7-------7-7-|----------------|----------------| 
A|-----5-5---5---5-|----------------|-----5-5---5---5-|----------------|----------------|----------------| 
E|-7-7-------------|5------5--------|-7-7-------------|5-------5-------|--7-7------5-5--|--7-7------5-5--| 

                                                                       1:21 
G|-----------------|----------------|-----------------|----------------|----------------|----------------| 
D|---------4---4---|----7-------7-7-|---------4---4---|----7-------7-7-|--9-9-9-9-9-9---|--7-7-7-5---7---| 
A|-----5-5---5---5-|----------------|-----5-5---5---5-|----------------|----------------|----------------| 
E|-7-7-------------|5------5--------|-7-7-------------|5-------5-------|----------------|----------------| 

                                    1:28 
G|-----------------|----------------|-----------------|----------------| 
D|-----------------|----------------|-----------------|----------------| 
A|14-14-14-14-14-14|-12-12-12-10--12|-----------------|----------------| 
E|-----------------|----------------|-7---7-5---5-7---|--7-5---5-7-----| 

A l'apogée..."                      1:42 
G|-----------------|----------------|-----------------|----------------| 
D|-----------------|----------------|-----------------|----------------| 
A|-----------------|----------------|14--12--10-12-14-|-12-------------| 
E|-----------------|----------------|-----------------|----------------| 

G|-----------------|----------------|-----------------|----------------| 
D|-----------------|----------------|-----------------|----------------| 
A|-----------------|----------------|-----------------|----------------| 
E|-7-7-7-7-7-7-7-7-|-5-5-5-5--3--5--|-7-7-7-7-7-7-7-7-|-5-5-5-5--3--5-7| 

1:57 - 2:13 Bass tacet 

G|-----------------|----------------|-----------------|----------------| 
D|-----------------|----------------|-----------------|----------------| 
A|-----------------|----------------|-----------------|----------------| 
E|-7-7-7-7-7-7-7-7-|-5-5-5-5--3--5--|-7-7-7-7-7-7-7-7-|-5-5-5-5--3--5-7| 
		  

auto scroll beats size up size down change color hide chords drawings
tab show chords e-chords YouTube Clip e-chords hide all tabs e-chords go to top tab

share