Louise Attaque

home > Louise Attaque

Amours Bass Tab

Louise Attaque

Difficulty: nolevelnolevel

by tamamoreira

tuner correct add songbook print version text version save to e-mail
chordsukulelecavacokeyboardtabbassdrumsharmonicsflute Guitar Pro
chords

Amours

  		Bass enters at 0:20 

Verse         
                                                        0:24     
G|--------------------|--------------------|--------------------|--------------------| 
D|--------------------|----------2-0-------|--------------------|----------2-0-------| 
A|--------------------|-0--2-4-0-----4-2-0-|--------------------|-0--2-4-0-----4-2-0-| 
E|--------------0-2-3-|--------------------|--------------0-2-3-|--------------------| 


Chorus 

"Amour, de longue date..." 
G|---------------------|-------------|---------------------|-------------| 
D|--------2--------2-4-|-----0-------|--------2--------2-4-|-----0-------| 
A|-0--2/4---0--2/4-----|-4-4---4-2-4-|-0--2/4---0--2/4-----|-4-4---4-2-4-| 
E|---------------------|-------------|---------------------|-------------| 

G|---------------------|-------------|---------------------|-------------| 
D|--------2--------2-4-|-----0-------|--------2--------2-4-|-----0-------| 
A|-0--2/4---0--2/4-----|-4-4---4-2-4-|-0--2/4---0--2/4-----|-4-4---4-2-4-| 
E|---------------------|-------------|---------------------|-------------| 

G|--------------------|-----------------|--------------------|-----------------| 
D|----------2-0-------|-----------------|----------2-0-------|-----------------| 
A|-0--2-4-0-----4-2-0-|-----------------|-0--2-4-0-----4-2-0-|-----------------| 
E|--------------------|-----------------|--------------------|-----------------| 


Post-Chorus 

G|---------------------|-------------|---------------------|-------------| 
D|--------2--------2-4-|-----0-------|--------2--------2-4-|-----0-------| 
A|-0--2/4---0--2/4-----|-4-4---4-2-4-|-0--2/4---0--2/4-----|-4-4---4-2-4-| 
E|---------------------|-------------|---------------------|-------------| 

G|---------------|-----------------|---------------|-----------------| 
D|-----0-----0---|-----------------|-----0-----0---|-----------------| 
A|-4-----4-2---4-|-----------------|-4-----4-2---4-|-----------------| 
E|---------------|-2-2-2-2-2-2-2-2-|---------------|-2-2-2-2-2-2-2-2-| 


Verse Bass Tacet 

1:13 
G|-------------|-------------|-------------|-------------|-------------|-------------| 
D|-------------|-------------|-------------|-------------|-------------|-------------| 
A|-0-----------|-------------|-0-----------|-------------|-0-----------|-------------| 
E|-------------|-------------|-------------|-------------|-------------|-------------| 

G|-------------|--------------------| 
D|-------------|--------------------| 
A|-0-----0-----|--0--0--0-----------| 
E|-------------|--------------0-2-3-| 


Chorus 

G|---------------------|-------------|---------------------|-------------| 
D|--------2--------2-4-|-----0-------|--------2--------2-4-|-----0-------| 
A|-0--2/4---0--2/4-----|-4-4---4-2-4-|-0--2/4---0--2/4-----|-4-4---4-2-4-| 
E|---------------------|-------------|---------------------|-------------| 

G|---------------------|-------------|---------------------|-------------| 
D|--------2--------2-4-|-----0-------|--------2--------2-4-|-----0-------| 
A|-0--2/4---0--2/4-----|-4-4---4-2-4-|-0--2/4---0--2/4-----|-4-4---4-2-4-| 
E|---------------------|-------------|---------------------|-------------| 

G|---------------------|-------------|---------------------|-------------| 
D|--------2--------2-4-|-----0-------|--------2--------2-4-|-----0-------| 
A|-0--2/4---0--2/4-----|-4-4---4-2-4-|-0--2/4---0--2/4-----|-4-4---4-2-4-| 
E|---------------------|-------------|---------------------|-------------| 

G|---------------------|-------------|---------------------|-------------| 
D|--------2--------2-4-|-----0-------|--------2--------2-4-|-----0-------| 
A|-0--2/4---0--2/4-----|-4-4---4-2-4-|-0--2/4---0--2/4-----|-4-4---4-2-4-| 
E|---------------------|-------------|---------------------|-------------| 

G|--------------------|-----------------| 
D|----------2-0-------|-----------------| 
A|-0--2-4-0-----4-2-0-|--0---0-0-0------| 
E|--------------------|-----------------| 


/: slide down 
	  

Search Paypal
auto scroll beats size up size down change color hide chords drawings
tab show chords e-chords YouTube Clip e-chords hide all tabs e-chords go to top tab