Lost Acapulco

Tanga Tutanga

Lost Acapulco

bass

by  TERCMORAES

save to print version add songbook text version e-mail correct tuner
chordsukulelecavacokeyboardtabbassdrumsharmonicaflute Guitar Pro
close

there isn't a video lesson for this song

chords

Tanga Tutanga

(Lost acapulco)

	  		Holas , que onda banda, esta rola espero les guste 
sale ahi chéquenla.... 

¡¡¡Tanga tu tanga tu tanga¡¡¡ 

G|---------------|-----------|--------------------| 
D|---------------|-----------|--------------------| 
A|-7-7---5-6-7-7-|---5-6-7-7-|---5-6-7-7--7-7-5-7-| 
E|-----7---------|-7---------|-7------------------| 

G|------------|-----------|--------------------| 
D|----5-6-7-7-|---5-6-7-7-|--------------------| 
A|--7---------|-7---------|---5-6-7-7--7-7-5-7-| 
E|------------|-----------|-7------------------| 

G|--------------|-----------|--------------------| 
D|----8-9-10-10-|---5-6-7-7-|--------------------| 
A|-10-----------|-7---------|---5-6-7-7--7-7-5-7-| 
E|--------------|-----------|-7------------------| 

Se repite hasta que termina el solo con la guitarra y lo final es: 


G|--------------|-----------|--------------|-----------| 
D|----8-9-10-10-|---5-6-7-7-|----8-9-10-10-|---5-6-7-7-| 
A|-10-----------|-7---------|-10-----------|-7---------| 
E|--------------|-----------|--------------|-----------| 


G|--------------|-----------|--------------------| 
D|----8-9-10-10-|---5-6-7-7-|--------------------| 
A|-10-----------|-7---------|---5-6-7-7--7-7-5-7-| 
E|--------------|-----------|-7------------------| 



Espero lo encuentren fácil, cámara banda, nos vemos 
dudas y sugerencias a [email protected]
		  

See also:

bass Lost Acapulco - El Garage bass Lost Acapulco - Tanga Tutanga
e-chords

Other versions:

bass Lost Acapulco - Tanga Tutanga
auto scroll beats size up size down change color hide chords drawings
tab show chords e-chords YouTube Clip e-chords hide all tabs e-chords go to top tab

share