Loquero

Estamos Cansados

Loquero

bass

by  BOMBAXXX

save to print version add songbook text version e-mail correct tuner
chordsukulelecavacokeyboardtabbassdrumsharmonicaflute Guitar Pro
close

there isn't a video lesson for this song

chords

Estamos Cansados

	  		Intro y Versos 
G:----------------------------------------------------------- 
D:----------------------------------------------------------- 
A:----------------5-5-5-5-5-5-5------------------------------ 
E:--7-7-7-7-7-7-7---------------3-3-3-3-3-3-3--5-5-5-5-5-5-5- 

Estribillo: 

G:-------------------------------- 
D:-------------------------------- 
A:---------5-5--5----------------- 
E:--7-7--7--------3-3--3--5-5--5-- 


Y sobre el final antes de ke repita por ultima vez 
el estrbillo hace como un puentes ,eso es algo asi: 

G:------------------------- 
D:------------------------- 
A:------5-5-5------3-3-3--- 
E:--7-7--------3-3--------- 



Uno de los mejores temas de loquero ,cuando termine de 
sakar la guitarra del tema la subo. Chaus y suerte!! 

Dudas a mi mail
		  

See also:

bass Bersuit Vergarabat - La Bolsa bass La renga - Debbie El Fantasma bass Callejeros - Creo bass Catupecu Machu - El Lugar bass Dos Minutos - Mundo Para Dos bass Flema - Hoy Yo Puedo Volar
e-chords

Other versions:

bass Loquero - Estamos Cansados
auto scroll beats size up size down change color hide chords drawings
tab show chords e-chords YouTube Clip e-chords hide all tabs e-chords go to top tab

share