Linkin Park

Talking To Myself

Linkin Park

bass

by  BOMBAXXX

save to print version add songbook text version e-mail correct tuner
chordsukulelecavacokeyboardtabbassdrumsharmonicaflute Guitar Pro
close

there isn't a video lesson for this song

chords

Talking To Myself

	  		
Intro 

No bass part for the first 4 bars of this section, followed by: 

    1    +    2    +    3    +    4    +      1    +    2    +    3    +    4    + 
G|-----------------------------------------|-----------------------------------------| 
D|--0----0----0----0-----------------------|-----------------------------------------| 
A|----------------------3----3----3----1---|--1----1----1----1-----------------------| 
E|-----------------------------------------|----------------------3----3----3----3---| 


    1    +    2    +    3    +    4    +      1    +    2    +    3    +    4    + 
G|-----------------------------------------|-----------------------------------------| 
D|--0----0----0----0-----------------------|-----------------------------------------| 
A|----------------------3----3----3----1---|--1----1----1----1-----------------------| 
E|-----------------------------------------|----------------------3----3----3----3---| 


    1    +    2    +    3    +    4    +      1    +    2    +    3    +    4    + 
G|-----------------------------------------|-----------------------------------------| 
D|--0----0----0----0-----------------------|-----------------------------------------| 
A|----------------------3----3----3----1---|--1----1----1----1-----------------------| 
E|-----------------------------------------|----------------------3----3----3----3---| 


    1    +    2    +    3    +    4    +      1    +    2    +    3    +    4    + 
G|-----------------------------------------|-----------------------------------------| 
D|-----------------------------------------|-----------------------------------------| 
A|--1----1----1----1----1----1----1----1---|--3----3----3----3----3----3----3----3---| 
E|-----------------------------------------|-----------------------------------------| 


verse 1a 

No bass part during this section (16 bars) 


verse 1b 

    1    +    2    +    3    +    4    +      1    +    2    +    3    +    4    + 
G|-----------------------------------------|-----------------------------------------| 
D|--0----0----0----0-----------------------|-----------------------------------------| 
A|-----------------------------------------|-----------------------------------------| 
E|-----------------------------------------|--1----1----1----1-----------------------| 


    1    +    2    +    3    +    4    +      1    +    2    +    3    +    4    + 
G|-----------------------------------------|-----------------------------------------| 
D|-----------------------------------------|-----------------------------------------| 
A|-----------------------------------------|--1----1----1----1----1----1----3----3---| 
E|--3----3----3----3-----------------------|-----------------------------------------| 


    1    +    2    +    3    +    4    +      1    +    2    +    3    +    4    + 
G|-----------------------------------------|-----------------------------------------| 
D|--0----0----0----0-----------------------|-----------------------------------------| 
A|-----------------------------------------|-----------------------------------------| 
E|-----------------------------------------|--1----1----1----1-----------------------| 


    1    +    2    +    3    +    4    +      1    +    2    +    3    +    4    + 
G|-----------------------------------------|-----------------------------------------| 
D|-----------------------------------------|-----------------------------------------| 
A|-----------------------------------------|--1----1----1----1----3----3----3----3---| 
E|-------3----3----3-----------------------|-----------------------------------------| 


Pre-Chorus 1 

No bass part during this section (8 bars). 


Chorus 1 

    1    +    2    +    3    +    4    +      1    +    2    +    3    +    4    + 
G|-----------------------------------------|-----------------------------------------| 
D|--0----0----0----0----3----3----3--------|-----------------------------------------| 
A|-------------------------------------3---|--3----3----3----3----1----1----1----1---| 
E|-----------------------------------------|-----------------------------------------| 


    1    +    2    +    3    +    4    +      1    +    2    +    3    +    4    + 
G|-----------------------------------------|-----------------------------------------| 
D|--0----0----0----0----3----3----3--------|-----------------------------------------| 
A|-------------------------------------3---|--3----3----3----3----1----1----1----1---| 
E|-----------------------------------------|-----------------------------------------| 


    1    +    2    +    3    +    4    +      1    +    2    +    3    +    4    + 
G|-----------------------------------------|-----------------------------------------| 
D|--0----0----0----0----3----3----3--------|-----------------------------------------| 
A|-------------------------------------3---|--3----3----3----3----1----1----1----1---| 
E|-----------------------------------------|-----------------------------------------| 


    1    +    2    +    3    +    4    +      1    +    2    +    3    +    4    + 
G|-----------------------------------------|-----------------------------------------| 
D|-----------------------------------------|-----------------------------------------| 
A|--1----1----1----1----1----1----1----1---|--3----3----3----3----3----3----3----3---| 
E|-----------------------------------------|-----------------------------------------| 


verse 2a 

No bass part during the first 7 bars, followed by: 

    1    +    2    +    3    +    4    + 
G|-----------------------------------------| 
D|-----------------------------------------| 
A|----------------------1----1----3----3---| 
E|-----------------------------------------| 


verse 2b 

    1    +    2    +    3    +    4    +      1    +    2    +    3    +    4    + 
G|-----------------------------------------|-----------------------------------------| 
D|--0----0----0----0-----------------------|-----------------------------------------| 
A|-----------------------------------------|-----------------------------------------| 
E|-----------------------------------------|------------1----1----1----1----1----1---| 


    1    +    2    +    3    +    4    +      1    +    2    +    3    +    4    + 
G|-----------------------------------------|-----------------------------------------| 
D|-----------------------------------------|-----------------------------------------| 
A|-----------------------------------------|------------1----1----1----1----3----3---| 
E|--3----3----3----3-----------------------|-----------------------------------------| 


    1    +    2    +    3    +    4    +      1    +    2    +    3    +    4    + 
G|-----------------------------------------|-----------------------------------------| 
D|--0----0----0----0-----------------------|-----------------------------------------| 
A|-----------------------------------------|-----------------------------------------| 
E|-----------------------------------------|------------1----1----1----1----1----1---| 


    1    +    2    +    3    +    4    +      1    +    2    +    3    +    4    + 
G|-----------------------------------------|-----------------------------------------| 
D|-----------------------------------------|-----------------------------------------| 
A|-----------------------------------------|-----------------------------------------| 
E|--3----3----3----3-----------------------|-----------------------------------------| 



Pre-Chorus 2 

    1    +    2    +    3    +    4    +      1    +    2    +    3    +    4    + 
G|-----------------------------------------|-----------------------------------------| 
D|--0----0----0----0-----------------------|-----------------------------------------| 
A|----------------------3----3----3----1---|--1----1----1----1-----------------------| 
E|-----------------------------------------|----------------------3----3----3----3---| 


    1    +    2    +    3    +    4    +      1    +    2    +    3    +    4    + 
G|-----------------------------------------|-----------------------------------------| 
D|--0----0----0----0-----------------------|-----------------------------------------| 
A|----------------------3----3----3----1---|--1----1----1----1-----------------------| 
E|-----------------------------------------|----------------------3----3----3----3---| 


    1    +    2    +    3    +    4    +      1    +    2    +    3    +    4    + 
G|-----------------------------------------|-----------------------------------------| 
D|--0----0----0----0-----------------------|-----------------------------------------| 
A|----------------------3----3----3----1---|--1----1----1----1-----------------------| 
E|-----------------------------------------|----------------------3----3----3----3---| 


    1    +    2    +    3    +    4    +      1    +    2    +    3    +    4    + 
G|-----------------------------------------|-----------------------------------------| 
D|-----------------------------------------|-----------------------------------------| 
A|--1----1----1----1----1----1----1----1---|--3----3----3----3----3----3----3----3---| 
E|-----------------------------------------|-----------------------------------------| 


Chorus 2 

    1    +    2    +    3    +    4    +      1    +    2    +    3    +    4    + 
G|-----------------------------------------|-----------------------------------------| 
D|--0----0----0----0----3----3----3--------|-----------------------------------------| 
A|-------------------------------------3---|--3----3----3----3----1----1----1----1---| 
E|-----------------------------------------|-----------------------------------------| 


    1    +    2    +    3    +    4    +      1    +    2    +    3    +    4    + 
G|-----------------------------------------|-----------------------------------------| 
D|--0----0----0----0----3----3----3--------|-----------------------------------------| 
A|-------------------------------------3---|--3----3----3----3----1----1----1----1---| 
E|-----------------------------------------|-----------------------------------------| 


    1    +    2    +    3    +    4    +      1    +    2    +    3    +    4    + 
G|-----------------------------------------|-----------------------------------------| 
D|--0----0----0----0----3----3----3--------|-----------------------------------------| 
A|-------------------------------------3---|--3----3----3----3----1----1----1----1---| 
E|-----------------------------------------|-----------------------------------------| 


    1    +    2    +    3    +    4    +      1    +    2    +    3    +    4    + 
G|-----------------------------------------|-----------------------------------------| 
D|-----------------------------------------|-----------------------------------------| 
A|--1----1----1----1----1----1----1----1---|--3----3----3----3----3----3----3----3---| 
E|-----------------------------------------|-----------------------------------------| 


Bridge 

No bass part during this section (12 bars). 


Pre-Chorus 3 

    1    +    2    +    3    +    4    +      1    +    2    +    3    +    4    + 
G|-----------------------------------------|-----------------------------------------| 
D|--0----0----0----0-----------------------|-----------------------------------------| 
A|----------------------3----3----3----1---|--1----1----1----1-----------------------| 
E|-----------------------------------------|----------------------3----3----3----3---| 


    1    +    2    +    3    +    4    +      1    +    2    +    3    +    4    + 
G|-----------------------------------------|-----------------------------------------| 
D|--0----0----0----0-----------------------|-----------------------------------------| 
A|----------------------3----3----3----1---|--1----1----1----1-----------------------| 
E|-----------------------------------------|----------------------3----3----3----3---| 


    1    +    2    +    3    +    4    +      1    +    2    +    3    +    4    + 
G|-----------------------------------------|-----------------------------------------| 
D|--0----0----0----0-----------------------|-----------------------------------------| 
A|----------------------3----3----3----1---|--1----1----1----1-----------------------| 
E|-----------------------------------------|----------------------3----3----3----3---| 


    1    +    2    +    3    +    4    +      1    +    2    +    3    +    4    + 
G|-----------------------------------------|-----------------------------------------| 
D|-----------------------------------------|-----------------------------------------| 
A|--1----1----1----1----1----1----1----1---|--3----3----3----3----3----3----3----3---| 
E|-----------------------------------------|-----------------------------------------| 


Chorus 3 

    1    +    2    +    3    +    4    +      1    +    2    +    3    +    4    + 
G|-----------------------------------------|-----------------------------------------| 
D|--0----0----0----0----3----3----3--------|-----------------------------------------| 
A|-------------------------------------3---|--3----3----3----3----1----1----1----1---| 
E|-----------------------------------------|-----------------------------------------| 


    1    +    2    +    3    +    4    +      1    +    2    +    3    +    4    + 
G|-----------------------------------------|-----------------------------------------| 
D|--0----0----0----0----3----3----3--------|-----------------------------------------| 
A|-------------------------------------3---|--3----3----3----3----1----1----1----1---| 
E|-----------------------------------------|-----------------------------------------| 


    1    +    2    +    3    +    4    +      1    +    2    +    3    +    4    + 
G|-----------------------------------------|-----------------------------------------| 
D|--0----0----0----0----3----3----3--------|-----------------------------------------| 
A|-------------------------------------3---|--3----3----3----3----1----1----1----1---| 
E|-----------------------------------------|-----------------------------------------| 


    1    +    2    +    3    +    4    +      1    +    2    +    3    +    4    + 
G|-----------------------------------------|-----------------------------------------| 
D|-----------------------------------------|-----------------------------------------| 
A|--1----1----1----1----1----1----1----1---|--3----3----3----3----3----3----3----3---| 
E|-----------------------------------------|-----------------------------------------| 


Outro 

No bass part during this section (5 bars). 
		  

See also:

bass Linkin Park - Enth E Nd bass Korn - Blind (4 Cordas) bass Evanescence - Tourniquet bass System Of A Down - Aerials (Ver.2) bass System Of A Down - Aerials (ver. 2) bass System Of A Down - Fuck The System
e-chords

Other versions:

bass Linkin Park - Talking To Myself
auto scroll beats size up size down change color hide chords drawings
tab show chords e-chords YouTube Clip e-chords hide all tabs e-chords go to top tab

share