Libido

Nadie Sabe Lo Que Vendar

Libido

bass

by  SUPERCHATO

save to print version add songbook text version e-mail correct tuner
chordsukulelecavacokeyboardtabbassdrumsharmonicaflute Guitar Pro
close

there isn't a video lesson for this song

chords

Nadie Sabe Lo Que Vendar

	  		INTRO:(0:08) 
“EL BAJO TOCA EN BASE A LA BATERIA” 
E|-------------------------| 
A|-5^-3^-5^----------------| x2 
D|-------------------------| 
G|-------------------------| 

ay quien me hizo doler.......... 

E|------------------------| 
A|-5^-3^-5^---------------| x2 
D|------------------------| 
G|------------------------| 

si todo gira y gira me da igual 

E|----------------------| 
A|------3^--------------| 
D|-2^-5^--2^------------| 
G|----------------------| 

si mis palabras duelen no quiero callar 

E|-------------------------| 
A|------3^---3^------------| 
D|-2^-5^--2^---------------| 
G|-------------------------| 

te odio tanto y no estoy mal 

E|----------------------| 
A|-5^-3^-5^-------------| x2 
D|----------------------| 
G|----------------------| 

si la rutina me enseño a extrañar 

E|---------------------------| 
A|------3^-------------------| 
D|-2^-5^--2^-----------------| 
G|---------------------------| 

de todas formas me he quedado hasta el final; del cuento 

E|-------------------------| 
A|------3^---3^-5^---------| 
D|-2^-5^--2^---------------| 
G|-------------------------| 

CORO: 

nadie sabe lo que vendrá si acepto 

E|-3-33-3-33----------------| 
A|-----------5-55-5-55------| 
D|--------------------4-5-4-| 
G|--------------------------| 

nada importa si tu no estas mirándome 

E|-3-33-3-33----------------| 
A|-----------5-55-----5-55--| 
D|----------------4-44------| 
G|--------------------------| 

ay quien me vino a salvar.... 

E|------------------------| 
A|-5^-3^-5^---------------| x2 
D|------------------------| 
G|------------------------| 

y si te alejas siento que te quiero más; del cuento 

E|------------------------------| 
A|------3^---3^-5^5-55--555555--| 
D|-2^-5^--2^--------------------| 
G|------------------------------| 

CORO: 

nadie sabe lo que vendrá si acepto 

E|-3-33-3-33----------------| 
A|-----------5-55-5-55------| 
D|--------------------4-5-4-| 
G|--------------------------| 

nada importa si tu no estas mirándome 

E|-3-33-3-33----------------| 
A|-----------5-55-----5-55--| 
D|----------------4-44------| 
G|--------------------------| 

INTERMEDIO: 

“El bajo hace en base a la batería 
En esta parte”: 

E|---------------------------| 
A|--5-5-5-5-5-5---5---5------| 
D|-2-2-5-5-5-5-0-5-0-5-------| 
G|------------0---0----------| 

nadie sabe lo que vendrá 

E|-3-33-3-33----------------| 
A|-----------5-55-5-55------| 
D|--------------------4-5-4-| 
G|--------------------------| 

nada importa si tu no estas mirándome 

E|-3-33-3-33-------------| 
A|-----------5-55--------| 
D|----------------4-44---| 
G|-----------------------| 

Mirándome... uuuuu....uuuuu....oooooo....oooooo 

E|-------333---333-----------------| 
A|----555---555---555----555-5555^-| 
D|-444----------------444----------| 
G|---------------------------------| 

^=Dejar la nota tocar 

ESpERo q lEs guSte aRRiBA el RocK 
		  

See also:

bass Libido - Culpable bass Amen - Echale La Culpa Al Rock And Roll bass Libido - Nadie Sabe Lo Que Vendar
e-chords

Other versions:

bass Libido - Nadie Sabe Lo Que Vendar
auto scroll beats size up size down change color hide chords drawings
tab show chords e-chords YouTube Clip e-chords hide all tabs e-chords go to top tab

share