Leela

Nenhuma Palavra

Leela

bass

by  MARKCIO

save to print version add songbook text version e-mail correct tuner
chordsukulelecavacokeyboardtabbassdrumsharmonicaflute Guitar Pro
close

there isn't a video lesson for this song

chords

Nenhuma Palavra

(Bianca Jhordão e Rodrigo Brandão)

	  		Nenhuma Palavra - Leela {baixo eletrico} 
 
 
G|---------|------------||---------|------------| 
D|---------|------------||---------|------------| 
A|---4---5-|---4---5-4-5||---4---5-|---4---5-4-5| 
G|-5---2---|-5---2----2-||-5---2---|-5---2----2-| 
 
Refrao 
 
G|-|---------|---------|-| 
D|.|---------|---------|.| 
A|.|---4---5-|---4---5-|.| 
G|-|-5---2---|-5---2---|-| 
 
 
Repete tudo 
 
Final 
 
G|-|------|-|-----| 
D|.|------|.|-----| 
A|.|------|.|-----| 
G|-|-2--5-|-|-2--3| 
 
 
By -> Markcio 

		  

See also:

bass Capital Inicial - Natasha (Ver.2) bass Titãs - Marvin bass Paralamas do Sucesso - Vital e Sua Moto bass Capital Inicial - Independência bass Jota Quest - Dias Melhores bass Paralamas do Sucesso - Selvagem
e-chords

Other versions:

bass Leela - Nenhuma Palavra
auto scroll beats size up size down change color hide chords drawings
tab show chords e-chords YouTube Clip e-chords hide all tabs e-chords go to top tab

share