Led Zeppelin

home > Led Zeppelin

Stairway to heaven (acustico) Bass Tab

Led Zeppelin

Difficulty: ExpertExpert

by weoliveira

tuner correct add songbook print version text version save to e-mail
chordsukulelecavacokeyboardtabbassdrumsharmonicsflute Guitar Pro
chords

Stairway to heaven (acustico)

	  Stairway to Heaven 



Versão 1 
-======- 


Para gravar esse clássico do rock, Jimmy Page utilizou quatro instrumentos: 
um violão de aço, uma Telecaster, uma guitarra de 12 cordas e uma Les Paul. 
O violão de aço é ligado direto na mesa (se você utilizar uma guitarra fica mais 
fácil, e o som não é muito modificado), para obter o timbre da guitarra de 12, 
use um pedal de Chorus; da Tele, um compressor, e da Les Paul, um overdrive (Tungsten 
da onerr, que possui um drive leve). Procure dedilhar seguindo os acordes, 
para que a música fique mais parecida com a original. 



                        Composição: Robert plant e Jimmy Page 
                        Transcrição: Natan Becchi 



   Violão de aço - sem palheta por enquanto 
    Am       Am9/G#     Am/G      D/F#       Fmaj7              G/B Am 
e|--------5--7------7-|-8------8--2------2-|-0----------0-----|-------------------| 
B|------5-------5-----|----5---------3-----|----1---1-----1---|-0---1--1----------| 
G|----5-----------5---|------5---------2---|------2---------2-|-0---2--2----------| 
D|--7--------6--------|-5---------4--------|-3----------------|-------------------| 
A|--------------------|--------------------|------------------|-2---0--0----0/8-7-| 
E|--------------------|--------------------|------------------|-------------------| 


e|--------5--7------7-|-8------8--2------2-|-0----------0-----|-------------------| 
B|------5-------5-----|----5---------3-----|----1---1-----1---|-0---1--1----------| 
G|----5-----------5---|------5---------2---|------2---------2-|-0---2--2----------| 
D|--7--------5--------|-5---------4--------|-3----------------|-------------------| 
A|0-------------------|--------------------|------------------|-2---0--0----0--2--| 
E|--------------------|--------------------|------------------|-------------------| 

    C         D         Fmaj7      Am        C        G          D 
e|---------0--2-----2-|-0------0-----------|----------3-----3-|--3p2-2--2---------| 
B|--------------3-----|----1-----0h1-------|-1-----1----0-----|--3---3--3---------| 
G|------0---------2---|------2-------2-----|---0----------0---|--2---2--2---------| 
D|----2-------0-------|-3------------------|-----2------------|--0---0--0---------| 
A|--3-----------------|----------0-----0-2-|-3----------------|-------------0--2--| 
E|--------------------|--------------------|----------3-------|-------------------| 

    C         D         Fmaj7      Am        C          D 
e|---------0--2-----2-|-0------0-----------|-------0--------2-|--0--0--0----------| 
B|--------------3-----|----1-----0h1-------|--------------3---|--1--1--1----------| 
G|------0---------2---|------2-------2-----|-----0------2-----|--2--2--2----------| 
D|----2-------0-------|-3------------------|---2------0-------|--3--3--3----------| 
A|--3-----------------|----------0-----0-2-|-3----------------|-------------------| 
E|--------------------|--------------------|------------------|-------------------| 


e|--------5--7------7-|-8------8--2------2-|-0----------0-----|-------------------| 
B|------5-------5-----|----5---------3-----|----1---1-----1---|-0---1--1----------| 
G|----5-----------5---|------5---------2---|------2---------2-|-0---2--2----------| 
D|--7--------5--------|-5---------4--------|-3----------------|-------------------| 
A|--------------------|--------------------|------------------|-2---0--0----------| 
E|--------------------|--------------------|------------------|-------------------| 


e|--------5--7------7-|-8------8--2------2-|-0----------0-----|-------------------| 
B|------5-------5-----|----5---------3-----|----1---1-----1---|-0---1--1----------| 
G|----5-----------5---|------5---------2---|------2---------2-|-0---2--2----------| 
D|--7--------5--------|-5---------4--------|-3----------------|-------------------| 
A|--------------------|--------------------|------------------|-2---0--0----0--2--| 
E|--------------------|--------------------|------------------|-------------------| 


e|---------0--2-----2-|-0------0-----------|----------3-----3-|--3p2-2--2---------| 
B|--------------3-----|----1-----0h1-------|-1-----1----0-----|--3---3--3---------| 
G|------0---------2---|------2-------2-----|---0----------0---|--2---2--2---------| 
D|----2-------0-------|-3------------------|-----2------------|--0---0--0---------| 
A|--3-----------------|----------0-----0-2-|-3----------------|-------------0--2--| 
E|--------------------|--------------------|----------3-------|-------------------| 


e|---------0--2-----2-|-0------0-----------|----------2-----2-|--0--0--0----------| 
B|--------------3-----|----1-----0h1-------|-1-----1----3-----|--1--1--1----------| 
G|------0---------2---|------2-------2-----|---0----------2---|--2--2--2----------| 
D|----2-------0-------|-3------------------|-----2----0-------|--3--3--3----------| 
A|--3-----------------|----------0-----0-2-|-3----------------|-------------------| 
E|--------------------|--------------------|------------------|-------------------| 


e|--------5--7------7-|-8------8--2------2-|-0----------0-----|-------------------| 
B|------5-------5-----|----5---------3-----|----1---1-----1---|-0---1--1----------| 
G|----5-----------5---|------5---------2---|------2---------2-|-0---2--2----------| 
D|--7--------5--------|-5---------4--------|-3----------------|-------------------| 
A|--------------------|--------------------|------------------|-2---0--0----0/8-7-| 
E|--------------------|--------------------|------------------|-------------------| 


e|--------5-7----7----|----8---------2-----|----0--------0----|-------------------| 
B|------5-----5-5-5---|---5-5-------3-3----|---1--1-----1-1---|-0---1--1--------3-| 
G|----5--------5---5--|--5---5-5---2---2-2-|--2----2---2---2--|-0---2--2--------0-| 
D|--7-------5-------6-|-5-----5---4-----4--|-3--------3-----3-|-----------------0-| 
A|--------------------|--------------------|------------------|-2---0--0--------2-| 
E|--------------------|--------------------|------------------|-------------------| 
                                                                               |palheta 
    Violão de aço e Guitarra Telecaster 
e|--3--3-3-3--3--3--2-|-0---2--2-2-2-2-0-0-|-3--3-3-3--3--0--7-|--5--3-----5------| 
B|--1--1-1-1--1--3--3-|-1---3--3-3-3-3-1-1-|-1--1-1-1--1--1--8-|--7--5-----7------| 
G|:-2--2-2-2--2--2--2-|-0---2--2-2-2-2-0-0-|-2--2-2-2--2--2--9-|--7--5-----7------| 
D|--2--2-2-2--2-------|--------------------|-2--2-2-2--2--2----|------------------| 
A|--------------------|--------------------|-------------------|----------------0-| 
E|--------------------|--------------------|-------------------|------------------| 


e|--3--3-3-3--3--0--0-|-2---2--2-2-2-2-0-0-|-3--3-3-3--3--0--7-|--5--3-----5------| 
B|--1--1-1-1--1--1--3-|-3---3--3-3-3-3-1-1-|-1--1-1-1--1--1--8-|--7--5-----7------| 
G|--2--2-2-2--2--2--0-|-2---2--2-2-2-2-0-0-|-2--2-2-2--2--2--9-|--7--5-----7------| 
D|--2--2-2-2--2--2----|--------------------|-2--2-2-2--2--2----|------------------| 
A|--------------------|--------------------|-------------------|------------------| 
E|--------------------|--------------------|-------------------|------------------| 


e|--------------------|--------------------|-----------------1-|----0-------------| 
B|----------1-------0-|-0h1---------1------|-------1---------1-|----1-------------| 
G|--------0-------0---|-----2-----2--------|-----0--------0--2-|----2-------------| 
D|------2-------0-----|---------2----------|---2--------0----3-|----2-------------| 
A|--2-3-------2-------|-------0-------0--2-|-3--------2------3-|----0------0--2---| 
E|--------------------|--------------------|-----------------1-|------------------| 


e|--------------------|--------------------|-----------------1-|----0-------------| 
B|----------1-------3-|-0h1---------1------|-------1---------1-|----1-------------| 
G|--------0-------0---|-----2-----2--------|-----0--------0--2-|----2-------------| 
D|------2-------0-----|---------2----------|---2--------0----3-|----2-------------| 
A|----3-------2-------|-------0-------0--2-|-3--------2------3-|----0------0--2---| 
E|--------------------|--------------------|-----------------1-|------------------| 


e|--------------------|-3--3-3-3--3--0--0-|-2---2--2-2-2-2-0-0-|-3--3-3-3--3--0-7-| 
B|----------1-------3-|-1--1-1-1--1--1--3-|-3---3--3-3-3-3-1-1-|-1--1-1-1--1--1-8-| 
G|--------0-------0--:|-2--2-2-2--2--2--0-|-2---2--2-2-2-2-0-0-|-2--2-2-2--2--2-9-| 
D|------2-------0-----|-2--2-2-2--2--2----|--------------------|-2--2-2-2--2--2---| 
A|----3-------2-------|-------------------|--------------------|------------------| 
E|--------------------|-------------------|--------------------|------------------| 


e|--5--3-----5------|-3--3-3-3--3--0--0-|-2---2--2-2-2-2-0-0-|-3--3-3-3--3--0--7--| 
B|--7--5-----7------|-1--1-1-1--1--1--3-|-3---3--3-3-3-3-0-0-|-1--1-1-1--1--1--8--| 
G|--7--5-----7------|-2--2-2-2--2--2--0-|-2---2--2-2-2-2-0-0-|-2--2-2-2--2--2--9--| 
D|------------------|-2--2-2-2--2--2----|--------------------|-2--2-2-2--2--2-----| 
A|------------------|-------------------|--------------------|--------------------| 
E|------------------|-------------------|--------------------|--------------------| 


e|--5--3-----5------|-------------------|--------------------|-----------------1--| 
B|--7--5-----7------|---------1-------0-|-0h1---------1------|-------1---------1--| 
G|--7--5-----7------|:------0-------0---|-----2-----2--------|-----0--------0--2--| 
D|------------------|-----2-------0-----|---------2----------|---2--------0----3--| 
A|------------------|-2-3-------2-------|-------0-------0--2-|-3--------2------3--| 
E|------------------|-------------------|--------------------|-----------------1--| 


e|--0---------------|-------------------|--------------------|-----------------1--| 
B|--1---------------|-------1---------3-|-0h1---------1------|-------1---------1--| 
G|--2---------------|-----0---------0---|-----2-----2--------|-----0--------0--2--| 
D|--2---------------|---2---------0-----|---------2----------|---2--------0----3--| 
A|--0----------0--2-|-3---------2-------|-------0-------0--2-|-3--------2------3--| 
E|------------------|-------------------|--------------------|-----------------1--| 
                                         ____________________ 
                                        |1. 
e|--0---------------|-------------------|-3--3-3-3--3--0--0--|-2---2--2-2-2-2-0-0-| 
B|--1---------------|-------1---------0-|-1--1-1-1--1--1--3--|-3---3--3-3-3-3-1-1-| 
G|--2---------------|-----0---------0---|-2--2-2-2--2--2--0--|-2---2--2-2-2-2-0-0-| 
D|--2---------------|---2---------0-----|-2--2-2-2--2--2-----|--------------------| 
A|--0----------0--2-|-3---------2-------|--------------------|--------------------| 
E|------------------|-------------------|--------------------|--------------------| 


e|-3--3-3-3--3--0--7-|--5--3-----5------|--3--3-3-3--3--0--0-|-2---2--2-2-2-2-0-0-| 
B|-1--1-1-1--1--1--8-|--7--5-----7------|--1--1-1-1--1--1--3-|-3---3--3-3-3-3-0-0-| 
G|-2--2-2-2--2--2--9-|--7--5-----7------|--2--2-2-2--2--2--0-|-2---2--2-2-2-2-0-0-| 
D|-2--2-2-2--2--2----|------------------|--2--2-2-2--2--2----|--------------------| 
A|-------------------|----------------0-|--------------------|--------------------| 
E|-------------------|------------------|--------------------|--------------------| 
                                         ____________________ 
                                        |2. Violão de aço, Telecaster e guitarra de 12 
e|-3--3-3-3--3--0--7-|--5--3-----5------|--2------------0--2-|-3----0--2-3---0--2-| 
B|-1--1-1-1--1--1--8-|--7--5-----7------|--3------------3--3-|-3----3--3-3---3--3-| 
G|-2--2-2-2--2--2--9-|--7--5-----7-----:|--2------------2--2-|-2----2--2-2---2--2-| 
D|-2--2-2-2--2--2----|------------------|--0-----------------|--------------------| 
A|-------------------|------------------|--------------------|--------------------| 
E|-------------------|------------------|--------------------|--------------------| 


e|----3---3---2---0--|--2--2-2-2--0-0-0-|-2--2-2-2--0--0-0-2-|-3---0--2-3-----0-2-| 
B|----3---3---3---1--|--3--3-3-3--1-1-1-|-3--3-3-3--1--1-3-3-|-3---3--3-3-----3-3-| 
G|----2---2---2---0--|--0--0-0-0--0---0-|-0--0-0-0--0--0-2-2-|-2---2--2-2-----2-2-| 
D|----------------2--|--2--2-2-2--2---2-|-2--2-2-2--2--2-----|--------------------| 
A|-------------------|------------------|--------------------|--------------------| 
E|-------------------|------------------|--------------------|--------------------| 


e|----3---3---2---0--|--0--2--2-2--0--0-|-2---2----2---------| 
B|----3---3---3---1--|--1--3--3-3--3--3-|-3---3--3---2-------| 
G|----2---2---2---0--|--0--0--0-0--0--0-|-4---4--------4-2-0-| 
D|----------------2--|--2--2--2-2--2--2-|--------------------| 
A|-------------------|------------------|--------------------| 
E|-------------------|------------------|--------------------| 


Chegou a hora do solo. Ele começa numa pentatônica de Am 
e troca pela escala relativa de Am. Treine bastante a pentatônica 
para ver como fica mais fácil realizar o solo. 


   Somente guitarra Les Paul 
e|-------5------------------------------8-8--8b10--8-5------8--10-8-------------| 
B|---------8-5--------------------8/10-----------------8h10---------10-8---8h10-| 
G|--7b9--------7-5---7p5-------------------------------------------------9------| 
D|-----------------7-----7p5----------------------------------------------------| 
A|---------------------------8--------------------------------------------------| 
E|------------------------------------------------------------------------------| 


e|-------5------------------------------------5---------------------------------| 
B|---------8-5----------------------------------8-5-----------------------------| 
G|--7b9--------7-5---7p5-----------5---5-5----------7-5---7p5-------------------| 
D|-----------------7-----7-5---5-7---7-----5------------7-----7p5-7p5-----------| 
A|---------------------------7----------------------------------------8/12------| 
E|------------------------------------------------------------------------------| 


e|-----------------------------------------------------15b17--15-12-12----------| 
B|---------------------------------13--17-15-13--15-13-----------------15-13----| 
G|-----9-----------------12--12-14----------------------------------------------| 
D|--10---12p10----12h14---------------------------------------------------------| 
A|-------------12---------------------------------------------------------------| 
E|------------------------------------------------------------------------------| 


e|------------------------------------------------------------------------------| 
B|-----13-15b17r15----13-15b17r15----13-15b17r15----13-15b17r15----13-15b17r15--| 
G|--14-------------14-------------14-------------14-------------14--------------| 
D|------------------------------------------------------------------------------| 
A|------------------------------------------------------------------------------| 
E|------------------------------------------------------------------------------| 


e|------------------------------------------------------------------------------| 
B|-----13-15b17r15----13-15b17r15----13-15b17r15----13-15b17r15----13-15b17r15--| 
G|--14-------------14-------------14-------------14-------------14--------------| 
D|------------------------------------------------------------------------------| 
A|------------------------------------------------------------------------------| 
E|------------------------------------------------------------------------------| 


e|--------15b17-----15-12--15-12--------------------------------15-12-----------| 
B|-----13------------------------15-13----13-15-13----13-15b17--------15-13-----| 
G|--14---------------------------------14----------14-----------------------14--| 
D|------------------------------------------------------------------------------| 
A|------------------------------------------------------------------------------| 
E|------------------------------------------------------------------------------| 
 |Essa parte do solo é feita | 
 |por uma segunda guitarra   | 
e|---------------------------|--------17----------------------------------------| 
B|-------13\12-13\10---------|--17-20----20-------------------------------------| 
G|---------------------------|--------------21p19p17----19p17----17-19b21-------| 
D|---------------------------|-----------------------19-------19----------------| 
A|---------------------------|--------------------------------------------------| 
E|---------------------------|--------------------------------------------------| 


e|---------------------------|--------------------------------------------------| 
B|-------13\12-13\10---------|--------------------------------------------------| 
G|---------------------------|---14b16--16r14--12--14---12b14-------------------| 
D|---------------------------|--------------------------------------------------| 
A|---------------------------|--------------------------------------------------| 
E|---------------------------|--------------------------------------------------| 


e|---------------------------|--------------------------------------------------| 
B|-------13\12-13\10---------|---------------------------5----------------------| 
G|---------------------------|--9b11-11r9-8-7----7-----7-5-7-5------------------| 
D|---------------------------|----------------10---10-----------7-7-------------| 
A|---------------------------|--------------------------------------------------| 
E|---------------------------|--------------------------------------------------| 


e|---------------------------|---20p17---20p17---20p17---20p17---20p17----20b22-| 
B|-------13\12-13\10---------|-17------17------17------17------17------17-------| 
G|---------------------------|--------------------------------------------------| 
D|---------------------------|--------------------------------------------------| 
A|---------------------------|--------------------------------------------------| 
E|---------------------------|--------------------------------------------------| 


     Am                  G                   F                                  G 
e|---5-5--x-x--x-x---|---3-3--x-x--x-x---|---1--x-x--1--x-x--1--x-x--1--x-x--1--3-| 
B|---5-5--x-x--x-x---|---3-3--x-x--x-x---|---1--x-x--1--x-x--1--x-x--1--x-x--1--3-| 
G|---5-5--x-x--x-x---|---4-4--x-x--x-x---|---2--x-x--2--x-x--2--x-x--2--x-x--2--4-| 
D|---7-7--x-x--x-x---|---5-5--x-x--x-x---|---3--x-x--3--x-x--3--x-x--3--x-x--3--5-| 
A|---7-7--x-x--x-x---|---5-5--x-x--x-x---|---3--x-x--3--x-x--3--x-x--3--x-x--3--5-| 
E|---5-5--x-x--x-x---|---3-3--x-x--x-x---|---1--x-x--1--x-x--1--x-x--1--x-x--1--3-| 

     Am                  G                   F                                  G 
e|---5-5--x-x--x-x---|---3-3--x-x--x-x---|---1--x-x--1--x-x--1--x-x--1--x-x--1--3-| 
B|---5-5--x-x--x-x---|---3-3--x-x--x-x---|---1--x-x--1--x-x--1--x-x--1--x-x--1--3-| 
G|---5-5--x-x--x-x---|---4-4--x-x--x-x---|---2--x-x--2--x-x--2--x-x--2--x-x--2--4-| 
D|---7-7--x-x--x-x---|---5-5--x-x--x-x---|---3--x-x--3--x-x--3--x-x--3--x-x--3--5-| 
A|---7-7--x-x--x-x---|---5-5--x-x--x-x---|---3--x-x--3--x-x--3--x-x--3--x-x--3--5-| 
E|---5-5--x-x--x-x---|---3-3--x-x--x-x---|---1--x-x--1--x-x--1--x-x--1--x-x--1--3-| 

     Am                  G                   F                                  G 
e|---5-5--x-x--x-x---|---3-3--x-x--x-x---|---1--x-x--1--x-x--1--x-x--1--x-x--1--3-| 
B|---5-5--x-x--x-x---|---3-3--x-x--x-x---|---1--x-x--1--x-x--1--x-x--1--x-x--1--3-| 
G|---5-5--x-x--x-x---|---4-4--x-x--x-x---|---2--x-x--2--x-x--2--x-x--2--x-x--2--4-| 
D|---7-7--x-x--x-x---|---5-5--x-x--x-x---|---3--x-x--3--x-x--3--x-x--3--x-x--3--5-| 
A|---7-7--x-x--x-x---|---5-5--x-x--x-x---|---3--x-x--3--x-x--3--x-x--3--x-x--3--5-| 
E|---5-5--x-x--x-x---|---3-3--x-x--x-x---|---1--x-x--1--x-x--1--x-x--1--x-x--1--3-| 

     Am                  G                   F                                  G 
e|---5-5--x-x--x-x---|---3-3--x-x--x-x---|---1--x-x--1--x-x--1--x-x--1--x-x--1--3-| 
B|---5-5--x-x--x-x---|---3-3--x-x--x-x---|---1--x-x--1--x-x--1--x-x--1--x-x--1--3-| 
G|---5-5--x-x--x-x---|---4-4--x-x--x-x---|---2--x-x--2--x-x--2--x-x--2--x-x--2--4-| 
D|---7-7--x-x--x-x---|---5-5--x-x--x-x---|---3--x-x--3--x-x--3--x-x--3--x-x--3--5-| 
A|---7-7--x-x--x-x---|---5-5--x-x--x-x---|---3--x-x--3--x-x--3--x-x--3--x-x--3--5-| 
E|---5-5--x-x--x-x---|---3-3--x-x--x-x---|---1--x-x--1--x-x--1--x-x--1--x-x--1--3-| 
 |Segunda Guitarra 
e|-------------------|-------------------|----------------------------------------| 
B|-------------------|-------------------|----------------------------------------| 
G|-------------------|-------------------|----------------------------------------| 
D|-------------------|-------------------|----------------------------------------| 
A|-------------------|-------------------|-------------3---5h7---5---3------------| 
E|-------------------|-------------------|---1---3h5---------------------5--------| 

     Am                  G                   F                                  G 
e|---5-5--x-x--x-x---|---3-3--x-x--x-x---|---1--x-x--1--x-x--1--x-x--1--x-x--1--3-| 
B|---5-5--x-x--x-x---|---3-3--x-x--x-x---|---1--x-x--1--x-x--1--x-x--1--x-x--1--3-| 
G|---5-5--x-x--x-x---|---4-4--x-x--x-x---|---2--x-x--2--x-x--2--x-x--2--x-x--2--4-| 
D|---7-7--x-x--x-x---|---5-5--x-x--x-x---|---3--x-x--3--x-x--3--x-x--3--x-x--3--5-| 
A|---7-7--x-x--x-x---|---5-5--x-x--x-x---|---3--x-x--3--x-x--3--x-x--3--x-x--3--5-| 
E|---5-5--x-x--x-x---|---3-3--x-x--x-x---|---1--x-x--1--x-x--1--x-x--1--x-x--1--3-| 
 |Segunda Guitarra 
e|-------------------|-------------------|----------------------------------------| 
B|-------------------|-------------------|----------------------------------------| 
G|-------------------|-------------------|----------------------------------------| 
D|-------------------|-------------------|----------------------------------------| 
A|-------------------|-------------------|-------------3---5h7---5---3------------| 
E|-------------------|-------------------|---1---3h5---------------------5--------| 

     Am                  G                   F                                  G 
e|---5-5--x-x--x-x---|---3-3--x-x--x-x---|---1--x-x--1--x-x--1--x-x--1--x-x--1--3-| 
B|---5-5--x-x--x-x---|---3-3--x-x--x-x---|---1--x-x--1--x-x--1--x-x--1--x-x--1--3-| 
G|---5-5--x-x--x-x---|---4-4--x-x--x-x---|---2--x-x--2--x-x--2--x-x--2--x-x--2--4-| 
D|---7-7--x-x--x-x---|---5-5--x-x--x-x---|---3--x-x--3--x-x--3--x-x--3--x-x--3--5-| 
A|---7-7--x-x--x-x---|---5-5--x-x--x-x---|---3--x-x--3--x-x--3--x-x--3--x-x--3--5-| 
E|---5-5--x-x--x-x---|---3-3--x-x--x-x---|---1--x-x--1--x-x--1--x-x--1--x-x--1--3-| 
 |Segunda Guitarra 
e|-------------------|-------------------|----------------------------------------| 
B|-------------------|-------------------|----------------------------------------| 
G|-------------------|-------------------|----------------------------------------| 
D|-------------------|-------------------|----------------------------------------| 
A|-------------------|-------------------|-------------3---5h7---5---3------------| 
E|-------------------|-------------------|---1---3h5---------------------5--------| 

     Am                  G                   F                                  G 
e|---5-5--x-x--x-x---|---3-3--x-x--x-x---|---1--x-x--1--x-x--1--x-x--1--x-x--1--3-| 
B|---5-5--x-x--x-x---|---3-3--x-x--x-x---|---1--x-x--1--x-x--1--x-x--1--x-x--1--3-| 
G|---5-5--x-x--x-x---|---4-4--x-x--x-x---|---2--x-x--2--x-x--2--x-x--2--x-x--2--4-| 
D|---7-7--x-x--x-x---|---5-5--x-x--x-x---|---3--x-x--3--x-x--3--x-x--3--x-x--3--5-| 
A|---7-7--x-x--x-x---|---5-5--x-x--x-x---|---3--x-x--3--x-x--3--x-x--3--x-x--3--5-| 
E|---5-5--x-x--x-x---|---3-3--x-x--x-x---|---1--x-x--1--x-x--1--x-x--1--x-x--1--3-| 
 |Segunda Guitarra 
e|-------------------|-------------------|----------------------------------------| 
B|-------------------|-------------------|----------------------------------------| 
G|-------------------|-------------------|----------------------------------------| 
D|-------------------|-------------------|----------------------------------------| 
A|-------------------|-------------------|-------------3---5h7---5---3------------| 
E|-------------------|-------------------|---1---3h5---------------------5--------| 

     Am     G     F                             Am     G     F 
e|---5-5----3-3---1-1-1-1-1-1-1-1--------|------5-5----3-3---1-1-1-1-1-1-1-1------| 
B|---5-5----3-3---1-1-1-1-1-1-1-1--------|------5-5----3-3---1-1-1-1-1-1-1-1------| 
G|---5-5----4-4---2-2-2-2-2-2-2-2--------|------5-5----4-4---2-2-2-2-2-2-2-2------| 
D|---7-7----5-5---3-3-3-3-3-3-3-3--------|------7-7----5-5---3-3-3-3-3-3-3-3------| 
A|---7-7----5-5---3-3-3-3-3-3-3-3--------|------7-7----5-5---3-3-3-3-3-3-3-3------| 
E|---5-5----3-3---1-1-1-1-1-1-1-1--------|------5-5----3-3---1-1-1-1-1-1-1-1------| 


e|--------------10--------------------------------------------------------------| 
B|-------10--13----13-10-----------10------------5-------8-------10-------13----| 
G|--12b14----------------12---12b14----5b7-7--7b9---10b12---12b14----16b17------| 
D|------------------------------------------------------------------------------| 
A|------------------------------------------------------------------------------| 
E|------------------------------------------------------------------------------| 


e|------------------------------------------------------------------------------| 
B|-------12------13------12------13------12------12------13------15------13-----| 
G|--14b16---16b17---14b16---16b17---14b16---14b16---16b17---17b19---16b17-------| 
D|------------------------------------------------------------------------------| 
A|------------------------------------------------------------------------------| 
E|------------------------------------------------------------------------------| 


e|------------------------------------------------------------------------------| 
B|------------------------------------------------------------------------------| 
G|-------12------15------13-----------------------------------------------------| 
D|--14b16---17b19---16b17-------And-she-is-buying-a-staiway-to-heaven-----------| 
A|------------------------------------------------------------------------------| 
E|------------------------------------------------------------------------------| 


Letra: Stairway To Heaven 
(Page/Plant)  

There's a lady who's sure all that glitters is gold  
And she's buying a stairway to heaven.  
When she gets there she knows, if the stores are all closed  
With a word she can get what she came for.  
Ooh, ooh, and she's buying a stairway to heaven.  

There's a sign on the wall but she wants to be sure  
'Cause you know sometimes words have two meanings.  
In a tree by the brook, there's a songbird who sings,  
Sometimes all of our thoughts are misgiven.  
Ooh, it makes me wonder,  
Ooh, it makes me wonder.  

There's a feeling I get when I look to the west,  
And my spirit is crying for leaving.  
In my thoughts I have seen rings of smoke through the trees,  
And the voices of those who standing looking.  
Ooh, it makes me wonder,  
Ooh, it really makes me wonder.  

And it's whispered that soon if we all call the tune  
Then the piper will lead us to reason.  
And a new day will dawn for those who stand long  
And the forests will echo with laughter.  

If there's a bustle in your hedgerow, don't be alarmed now,  
It's just a spring clean for the May queen.  
Yes, there are two paths you can go by, but in the long run  
There's still time to change the road you're on.  
And it makes me wonder.  

Your head is humming and it won't go, in case you don't know,  
The piper's calling you to join him,  
Dear lady, can you hear the wind blow, and did you know  
Your stairway lies on the whispering wind.  

And as we wind on down the road  
Our shadows taller than our soul.  
There walks a lady we all know  
Who shines white light and wants to show  
How everything still turns to gold.  
And if you listen very hard  
The tune will come to you at last.  
When all are one and one is all  
To be a rock and not to roll.  

And she's buying a stairway to heaven.  

_______________________________________________________ 






Versão 2 
-======- 


E|-------5-7-----7-|-8-----8-2-----2-|-0-----0-----0-----|-----------------| 
B|-----5-----5-----|---5-------3-----|---1-----1-----1---|-----------------| 
G|---5---------5---|-----5-------2---|-----2-----2-----2-|-0-2-2-----------| 
D|-7-------6-------|-5-------0-------|-3-----------------|-0-2-2-----------| 
A|-----------------|-----------------|-------------------|---------0-7-8-7-| 
E|-----------------|-----------------|-------------------|-3-0-0-----------| 
  
E|---------5-----7-|-8-----8-2-----2-|-0---------0-----|-----------------| 
B|-------5---5-----|---5-------3-----|---1---1-----1---|-0-1-1-----------| 
G|-----5-------5---|-----5-------2---|-----2---------2-|-0-2-2-----------| 
D|---7-----6-------|-5-------4-------|-3---------------|-----------------| 
A|-0---------------|-----------------|-----------------|-2-0-0-------0-2-| 
E|-----------------|-----------------|-----------------|-----------------| 
  
E|-------0-2-----2-|-0-----0----------|---------3-----3-| 
B|-----------3-----|---1-----0h1------|-1-----1---0-----| 
G|-----0-------2---|-----2-------2----|---0---------0---| 
D|---2-----0-------|-3----------------|-----2-----------| 
A|-3---------------|---------0----0-2-|-3---------------| 
E|-----------------|------------------|---------3-------| 
                                                               Intro end. 
E|---------2-----2-|-0-----0----------|---------------2-|-0-0-0-----------| 
B|-------1---3-----|---1-----0-1------|-------1-----3---|-1-1-1-----------| 
G|-----0-------2---|-----2-------2----|-----0-----2-----|-2-2-2-----------| 
D|---2-----0-------|-3----------------|---2-----0-------|-3-3-3-----------| 
A|-3---------------|---------0----0-2-|-3---------------|-----------------| 
E|-----------------|------------------|-----------------|-----------------| 
                                                               Theres a 
  
E|-------5-7-----7-|-8-----8-2-----2-|-0---------0-----|-----------------| 
B|-----5-----5-----|---5-------3-----|---1---1-----1---|-0-1-1-----------| 
G|---5---------5---|-----5-------2---|-----2---------2-|-0-2-2-----------| 
D|-7-------6-------|-5-------4-------|-3---------------|-----------------| 
A|-----------------|-----------------|-----------------|-2-0-0-----------| 
E|-----------------|-----------------|-----------------|-----------------| 
 lady whos         glitter            buying a          heaven When she 
  
E|-------5-7-----7-|-8-----8-2-----2-|-0---------0-----|-----------------| 
B|-----5-----5-----|---5-------3-----|---1---1-----1---|-0-1-1-----------| 
G|---5---------5---|-----5-------2---|-----2---------2-|-0-2-2-----------| 
D|-7-------6-------|-5-------4-------|-3---------------|-----------------| 
A|-----------------|-----------------|-----------------|-2-0-0-------0-2-| 
E|-----------------|-----------------|-----------------|-----------------| 
  gets there        stores are       ord she can get    came for 
  
E|---------2-----2-|-0-----0---------------|---------3-----3-|-3^2-2-2-------| 
B|-------1---3-----|---1----1--0-1---------|-1---1-1---0-----|-3---3-3-------| 
G|-----0-------2---|-----2---------2-------|---0-0-------0---|-2-----2-------| 
D|---2-----0-------|-3---------------------|-----2-----------|-0-----0-------| 
A|-3---------------|-----------0------0-2--|-3---------------|-----------0-2-| 
E|-----------------|-----------------------|---------3-------|---------------| 
  Oooh              oooh           and shes buying a          heaven   Theres 
  
E|-------0-2-----2-|-0-----------------|---------2-----2-|-0-0-0-----------| 
B|-----------3-----|---1--1--0 1-------|-1-----1---3-----|-1-1-1-----------| 
G|-----0-------2---|-----2-------2-----|---0---------2---|-2-2-2-----------| 
D|---2-----0-------|-3-----------------|-----2---0-------|-3-3-3-----------| 
A|-3---------------|---------------0-2-|-3---------------|-----------------| 
E|-----------------|-------------------|-----------------|-----------------| 
  sign on     she  wants         you   know         two   meanings    In a 
  
E|-------5-7-----7-|-8-----8-2-----2-|-0---0-----0-----|-----------------| 
B|-----5-----5-----|---5-------3-----|---1---1-----1---|-0-1-1-----------| 
G|---5---------5---|-----5-------2---|---------------2-|-0-2-2-----------| 
D|-7-------6-------|-5-------4-------|-3---------------|-----------------| 
A|-----------------|-----------------|-----------------|-2-0-0---0--/8-7-| 
E|-----------------|-----------------|-----------------|-----------------| 
  tree    theres a song        times all of our    mis  given 
  
E|--------5-7---7---|----8-------2------|----0-------0----|-----------------| 
B|-----------5-5-5--|---5-5-----3-3-----|---1--1----1-1---|-0-1-1-------3---| 
G|------5-----5---5-|--5---5---2---2--2-|--2----2--2---2--|-0-2-2-------0---| 
D|----7-----6-------|-5-----5-4-----4---|-3-------3-----3-|-------------0---| 
A|-0-0--------------|-------------------|-----------------|-2-0-0-------2---| 
E|------------------|-------------------|-----------------|-----------------| 
  
|-3---3-3-3--3--0-0-|-2-------2-------|-3--3-3-3--3--0-0---7-|--5---3---5---- 
|-1---1-1-1--1--1-3-|-3--3--3---3-0-0-|-1--1-1-1--1--1-1---8-|--7---5---7---- 
|-2---2-2-2--2--2-2-|-2-----------0-0-|-2--2-2-2--2--2-2---9-|--7---5---7---- 
|-2---2-2-2--2--2---|---0-------------|-2--2-2-2--2--2-2---0-|-------------0- 
|-------------------|-----------------|----------------------|-------------0- 
|-------------------|-----------------|----------------------|--------------- 
                      Oooh it makes me wonder 
|-3---3-3-3--3--0-0-|-2-------2-------|-3--3-3-3--3--0-0---7-|--5---3---5---- 
|-1---1-1-1--1--1-3-|-3--3--3---3-0-0-|-1--1-1-1--1--1-1---8-|--7---5---7---- 
|-2---2-2-2--2--2-2-|-2-----------0-0-|-2--2-2-2--2--2-2---9-|--7---5---7---- 
|-2---2-2-2--2--2---|---0-------------|-2--2-2-2--2--2-2---0-|-------------0- 
|-------------------|-----------------|----------------------|-------------0- 
|-------------------|-----------------|----------------------|--------------- 
   oooh               makes me wonder                                theres a 
  
------------------|------------------------|-----------------0--|--0-------- 
---------1------3-|-0h1----------1---------|-------1---------0--|--1-------- 
-------0------0---|-----2-------2----------|-----0--------0--2--|--2-------- 
-----2------0-----|---------2--------------|---2--------0----3--|--2-------- 
-0h3------2-------|-------0----------0--2--|-3--------2------3--|--0---0-2-- 
------------------|------------------------|-----------------1--|----------- 
feeling      when  look to             my    spirit          leaving  in my 
whispered          all call the tune then the piper will      to  reason  & 
  
----------------|--------------------|----------------0-|--0------|--------- 
-------1------3-|-0h1---------1------|-------1--------1-|--1------|----1---3 
-----0------0---|-----2-----2--------|-----0-------0--2-|--2------|---0---0- 
---2------0-----|---------2----------|---2-------0----3-|--2------|--2---0-- 
-3------2-------|-------0------0--2--|-3-------2------3-|--0--0-2-|-3---2--- 
----------------|--------------------|----------------1-|---------|--------- 
thoughts I        smoke through         voices of       looking  {goto %} 
new day           those who             forests will  laugh - ter 
  
|-3--3-3-3--3p-0-0---7-|--5---3---5----|-3--3-3-3--3h-0-0-|-2-----2-2-2-2-0-0- 
|-1--1-1-1--1--1-1---8-|--7---5---7----|-1--1-1-1--1--1-3-|-3-----3-3-3-3-0-0- 
|-2--2-2-2--2--2-2---9-|--7---5---7----|-2--2-2-2--2--2-0-|-2-----2-2-2-2-0-0- 
|-2--2-2-2--2--2-2---0-|----------0----|-2--2-2-2--2--2---|----0--0----------- 
|----------------------|-------------0-|------------------|------------------- 
|----------------------|---------------|------------------|------------------- 
                                                            whoah 
|-3--3-3-3--3--0-0---7-|--5---3---5---- 
|-1--1-1-1--1--1-1---8-|--7---5---7---- 
|-2--2-2-2--2--2-2---9-|--7---5---7---- 
|-2--2-2-2--2--2-2---0-|----------0---- 
|----------------------|-------------0- 
|----------------------|--------------- 
  
  
------------------|------------------------|-----------------0--|--0-------- 
---------1------3-|-0h1----------1---------|-------1---------1--|--1-------- 
-------0------0---|-----2-------2----------|-----0--------0--2--|--2-------- 
-----2------0-----|---------2--------------|---2--------0----3--|--2-------- 
-0h3------2-------|-------0----------0--2--|-3--------2------3--|--0---0-2-- 
------------------|------------------------|-----------------1--|----------- 
If theres a bust   'edge row dont            its just a           Queen 
Yes there are       go by but                 and theres still     your on 
  
----------------|-3--3-3-3--3--0-0-|-2-----2-2-2-2-----|-3--3-3-3--3--0-7- 
-------1------0-|-1--1-1-1--1--1-3-|-3-----3-3-3-3-0-0-|-1--1-1-1--1--1-8- 
-----0------0---|-2--2-2-2--2--0-0-|-2--2--2-2-2-2-0-0-|-0--0-2-0--0--0-9- 
---2------0-----|-2--2-2-2--2------|----0--0-----------|-2--2-2-2--2------ 
-3------2-------|------------------|-------------------|------------------ 
----------------|------------------|-------------------|------------------ 
                                          and it    won  der 
  
-5--3--5--|-3--3-3-3--3--0-0-|-2-----2-2-2-2-0-0-|-3--3-3-3--3--0-7-|-5--3--5- 
-7--5--7--|-1--1-1-1--1--1-3-|-3--3--3-3-3-3-0-0-|-1--1-1-1--1--1-8-|-7--5--7- 
-7--5--7--|-2--2-2-2--2--0-0-|-2--2--2-2-2-2-0-0-|-0--0-2-0--0--0-9-|-7--5--7- 
----------|-2--2-2-2--2------|-------------------|-2--2-2-2--2------|--------- 
--------0-|------------------|-------------------|------------------|--------0 
----------|------------------|-------------------|------------------|--------- 
                                oooh 
  
------------------|------------------------|-----------------0--|--0-------- 
---------1------3-|-0h1----------1---------|-------1---------1--|--1-------- 
-------0------0---|-----2-------2----------|-----0--------0--2--|--2-------- 
-----2------0-----|---------2--------------|---2--------0----3--|--2-------- 
-0h3------2-------|-------0----------0--2--|-3--------2------3--|--0---0-2-- 
------------------|------------------------|-----------------1--|----------- 
Your head is        wont go                  the pipers           him 
Dear lady can        blow                     your stairw     whispering wind 
  
                                                          wierd time (3/4?) 
-----3--------3---|--2---------0-2--|-3----0-2--3--0-2--|---3-3-2--------- 
---5--------3---4-|--3-------3-3-3--|-3--3-3-3--3--3-3--|---3-3-3-3------- 
-5-----5--4-------|--2-------2-2-2--|-2--2-2-2--2--2-2--|---2-2-2-0------- 
------------------|-----------------|-0--0-0-0--0--0-0--|---0-0-0-2------- 
------------------|-----------------|-------------------|---------3------- 
------------------|-----------------|-------------------|----------------- 
  
---2-2-2---|---2--2-2--0-0-0-2-|-3-0-2--0-2-|-3-3-3-3-|---2--2-2-0-0-|-0-2-2-0 
-3-3-3-3-1-|-1-3--3-3--3-3-3-3-|-3-3-3--3-3-|-3-3-3-3-|-3-3--3-3-3-3-|-3-3-3-3 
-0-0-0-0-0-|-0-0--0-0------2-2-|-2-2-2--2-2-|-2-2-2-0-|-0-0--0-0-0-0-|-0-0-0-0 
---------2-|-----------0-0-0-0-|-0-0-0--0-0-|-0-0-0-2-|-2------------|-------- 
---------3-|-------------------|------------|-------3-|--------------|-------- 
-----------|-------------------|------------|---------|--------------|-------- 
  
Ok, aqui começa o solo.                            Am     - x02210 
Eu incluí os acordes para tocar sobre              Am7    - x02010 
ele. Eles soam melhor abertos...                   Fmaj7  - xx3210 
É com uma guitarra de 12 cordas 
  
 Am                   Am7   Fmaj7 
|----------5---------------|------------------8--8-| 
|------------8-5-----------|-------------8b10------| 
|---7b9----------7-5---7p5-|-----------------------| 
|--------------------7-----|-7p5-------------------| 
|--------------------------|----8------------------| 
|--------------------------|-----------------------| 
  Am             Am7         Fmaj7 
|--8b10---8--5-------8--10-|-8-----------------------5-------| 
|---------------8b10-------|---10-8----8h10------------8-5---| 
|--------------------------|--------10-----------7b9-------7-| 
|--------------------------|---------------------------------| 
|--------------------------|---------------------------------| 
|--------------------------|---------------------------------| 
  Am             Am7          Fmaj7 
|----------------------------|----5------------------------| 
|----------------------------|------8-5--------------------| 
|-5---7p5------------5---5-5-|----------7-5--7p5-----------| 
|---7-----7-5---5-7----7-----|-5------------7----7p5-7p5---| 
|-------------7--------------|---------------------------8-| 
|----------------------------|-----------------------------| 
  
  Am             Am7 
|---------------------------------------------| 
|------------------------------------------13-| 
|---------10-------------------12----12-14----| 
|------10----12-10----10-12/14----14----------| 
|-8/12-------------12-------------------------| 
|---------------------------------------------| 
 Fmaj7 
|------------------------15b17-15-12----------------| 
|--15b17-15-13--15-13-13-------------15b17-15-13----| 
|------------------------------------------------14-| 
|---------------------------------------------------| 
|---------------------------------------------------| 
|---------------------------------------------------| 
 Am                                        Am7 
|---------------------------------------------------------------------------- 
|-13-15b17b15p13----13-15b17b15p13----13---15b17b15p13----13--15b17b15p13---- 
|----------------14----------------14------------------14-----------------14- 
|---------------------------------------------------------------------------- 
|---------------------------------------------------------------------------- 
|---------------------------------------------------------------------------- 
 Fmaj7 
|---------------------------------------------------------------------------- 
|-13-15b17b15p13----13--15b17b15p13----13--15b17b15p13----13--15b17b15p13---- 
|----------------14-----------------14-----------------14-----------------14- 
|---------------------------------------------------------------------------- 
|---------------------------------------------------------------------------- 
|---------------------------------------------------------------------------- 
  
 Am                       Am7               bend 
|------------------------------------------15b17--| 
|-13--15b17b15p13----13---15b17b15p13----13-------| 
|-----------------14------------------14----------| 
|-------------------------------------------------| 
|-------------------------------------------------| 
|-------------------------------------------------| 
 Fmaj7 
|-b17b15-12---12--------------------------------15--| 
|-----------15---15--13----13-15-13---13--15b17-----| 
|-----------------------14----------14--------------| 
|---------------------------------------------------| 
|---------------------------------------------------| 
|---------------------------------------------------| 
  
                  * Este riff é feito por outra guitarra. 
                  E em shows ao vivo é tocada na 1ª corda 
                  ------8\7-----8\5---- 
                        | 
 Am          Am7 /---------\   Fmaj7 
-----------------------------|-----------17---------------------------------- 
-15b17b15p13----13/12--13/10-|--------20----20-20---------------------------- 
-------------14--------------|--19b21-21----------19b21b19p17---19--17----19- 
-----------------------------|--------------------------------19-------19---- 
-----------------------------|----------------------------------------------- 
-----------------------------|----------------------------------------------- 
 Am       Am7         Fmaj7                             Am    Am7 
|--------------------|--------------------------------|--------------| 
|--------------------|--------------------------------|--------------| 
|-19b21--13/12 13/10-|--14b17--14b17-14--12--14--12-12b14------------| 
|--------------------|--------------------------------|--------------| 
|--------------------|--------------------------------|--------------| 
|--------------------|--------------------------------|--------------| 
 Fmaj7                               Am        Am7 
|-----------------------------------|----------8/7--8/5--| 
|-----------------------------------|--------------------| 
|-10b14----10b12b10-9-7----7--------|-7-9-7--------------| 
|-----------------------10----10----|-------10-7---------| 
|-----------------------------------|--------------------| 
|-----------------------------------|--------------------| 
  
 Fmaj7 
|----20-p17------20-p17------20-p17------20-p17------20-p17-----20b22-| 
|-17--------17----------17----------17----------17----------17--------| 
|---------------------------------------------------------------------| 
|---------------------------------------------------------------------| 
|---------------------------------------------------------------------| 
|---------------------------------------------------------------------| 
  
E as duas guitarras continuam "arpejando" (um termo técnico para 
solar rápido sobre escala) Faça em cordas .010 que soa muito 
bem. O Lead basicamente segue o Baixo. Você pode fazer ambos (Do mesmo modo 
que você pode fazer a guitarra principal e a de slide). 
  
Eu cifrei o baixo em ASCII também, já o ouvi o suficiente 
Se alguém precisar é só enviar um e-mail e pedir... 
ask just yet.. Também cifrei outras músicas mais "melódicas" do 
Zeppelin. 

  
  Am           G                  F  G   Am           G                F  G 
|-5------------3----------------|-1--3-|-5------------3-------------|--1--3- 
|-5------------3----------------|-1--3-|-5------------3-------------|--1--3- 
|-5------------4----------------|-2--4-|-5------------4-------------|--2--4- 
|-7------------5----------------|-3--5-|-7------------5-------------|--3--5- 
|-7------------5----------------|-3--5-|-7------------5-------------|--3--5- 
|-5------------3----------------|-1--4-|-5------------3-------------|--1--4- 
 And as we   wind on down the road       Our shadows taller than our  soul 
  
  Am           G               F  G    Am           G 
|-5------------3-------------|-1--3--|-5------------3----------| 
|-5------------3-------------|-1--3--|-5------------3----------| 
|-5------------4-------------|-2--4--|-5------------4----------| 
|-7------------5-------------|-3--5--|-7------------5----------| 
|-7------------5-------------|-3--5--|-7------------5----------| 
|-5------------3-------------|-1--4--|-5------------3----------| 
 there walks a lady we all know         who shines w' light and to 
  
  F                       G    Am       G 
--1-----------------------3--|------------------------------- 
--1-----------------------3--|------------------------------- 
--2-----------------------4--|------------------------------- 
--3-----------------------5--|------------------------------- 
--3----------3--5h7--5--3-5--|------------------------------- 
--1----1-3h5--------------3--|-5---5--------3--3------------- 
  show                          how everything still turns to 
  
                      Am           G               F  G    Am     G 
|---------------------5------------3-------------|-1--3--|-5------3---------- 
|---------------------5------------3-------------|-1--3--|-5------3---------- 
|---------------------5------------4-------------|-2--4--|-5------4---------- 
|---------------------7------------5-------------|-3--5--|-7------5---------- 
|-------3--5h7--5--3--7------------5-------------|-3--5--|-7------5---------- 
|-1-3h5---------------5------------3-------------|-1--4--|-5-5----3--3------- 
 gold                and if you listen very hard the tune will   come to u at 
  
  
   F                     G   Am    G     F 
|--1------------------------|----------0-|---0-0-0-0----- 
|--1------------------------|----------1-|---1-1-1-1----- 
|--2------------------------|----------2-|---2-2-2-2----- 
|--3------------------------|----------3-|---3-3-3-3----- 
|--3----------3--5h7--5--3--|------------|--------------- 
|--1----1-3h5---------------|-5-5--3-3-1-|-1----------5-5 
  last                        when   all __  yeah 
  
 Am    G       Fmaj7          Am      Am7/G      Fmaj7 
|-----------0-|-0-0-0-0------|--------8-10-----|------------------------- 
|-----------1-|-1-1-1-0------|-8/10--------10--|--8h10p10----------3-3--- 
|-----------2-|-2-2-2-0------|-----------------|-----------------5b7-2--- 
|-----------3-|-3-3-3-0------|-----------------|---------------------3--- 
|-------------|--------------|-----------------|------------------------- 
|-5-5--3-3--1-|--------------|-----------------|------------------------- 
  to be a rock  roll__ 
  
  
Am       Am7/G            Fmaj7              Am        Am7/G 
----------------------0--|-------------------|------------------------ 
----5-------8------10-3--|-----13-------12---|-----13------12------13- 
--7b9----10b12--12b14-0--|--15b17----14b16---|--15b17---14b16---15b17__ 
----------------------0--|-------------------|------------------------- 
-------------------------|-------------------|------------------------- 
-------------------------|-------------------|------------------------- 
 Fmaj7 
|----------------------------------------- 
|-13------12-------13------15-------------- 
__17---14b16----15b17---17b19-------------- 
|----------------------------------------- 
|------------------------------------------ 
|------------------------------------------ 
  
  
slow 
Am        Am7/G         Fmaj7 
----------------------|-0--------------------------------------------- 
----13------12-----15-|-1----13--------------------------------------- 
-15b17---14b16--17b19-|-2-15b17--------------------------------------- 
----------------------|-3--------------------------------------------- 
----------------------|----------------------------------------------- 
----------------------|----------------------------------------------- 
                                  And shes buying a stairway to heaven 
  
Letra: Stairway To Heaven 
  
  
There's a lady who's sure 
All that glitters is gold 
And she's buying a stairway to heaven. 
When she gets there she knows 
If the stores are all closed 
With a word she can get what she came for. 
Ooh, ooh, and she's buying a stairway to heaven. 
  
There's a sign on the wall 
But she wants to be sure 
'Cause you know sometimes words have two meanings. 
In a tree by the brook 
There's a songbird who sings, 
Sometimes all of our thoughts are misgiven. 
Ooh, it makes me wonder, 
Ooh, it makes me wonder. 
  
There's a feeling I get 
When I look to the west, 
And my spirit is crying for leaving. 
In my thoughts I have seen 
Rings of smoke through the trees, 
And the voices of those who standing looking. 
Ooh, it makes me wonder, 
Ooh, it really makes me wonder. 
  
And it's whispered that soon 
If we all call the tune 
Then the piper will lead us to reason. 
And a new day will dawn 
For those who stand long 
And the forests will echo with laughter. 
  
If there's a bustle in your hedgerow 
Don't be alarmed now, 
It's just a spring clean for the May queen. 
Yes, there are two paths you can go by 
But in the long run 
There's still time to change the road you're on. 
And it makes me wonder. 
  
Your head is humming and it won't go 
In case you don't know, 
The piper's calling you to join him, 
Dear lady, can you hear the wind blow, 
And did you know 
Your stairway lies on the whispering wind. 
  
And as we wind on down the road 
Our shadows taller than our soul. 
There walks a lady we all know 
Who shines white light and wants to show 
How ev'rything still turns to gold. 
And if you listen very hard 
The tune will come to you at last. 
When all are one and one is all 
To be a rock and not to roll. 
  
And she's buying a stairway to heaven. 


	  

there isn't a video lesson for this song

request
Full key step upFull key step up
Half key step upHalf key step up
Half key step downHalf key step down
Full key step downFull key step down
Search
auto scroll beats size up size down change color hide chords drawings
tab show chords e-chords YouTube Clip e-chords hide all tabs e-chords go to top tab