Led Zeppelin

home > Led Zeppelin

Since Ive Been Loving You Bass Tab

Led Zeppelin

Difficulty: EasyEasy

tuner correct add songbook print version text version save to e-mail
chordsukulelecavacokeyboardtabbassdrumsharmonicsflute Guitar Pro
chords

Since Ive Been Loving You

  		  INTRO 
G|----------------------------------------------------------------------------------------------- 
D|----------------10------910-------------------------------------------------810--108----------- 
A|810-----108-8-11----1113-----1310--10------------8-88-88-88-88-88-88-88-8811--------1110--8108- 
E|-----811-----------------------------11108-10-11----------------------------------------------8 
 
------------------------------------------------------------------------------------------------| 
------------------------------------------------------------------12-12-------------11-11-------| 
-----------810-1010-1010-1010-1011-1111-118-88-8-----------------------129---------------118----| 
-88-88-8811-------------------------------------11-1110-108-811-10--------10-99-99-9--------9--8| 
 
  VERSE 1: 
  
G|--------------------------------------------------------------------------------------------- 
D|-------10----------------8910-10----------10-10--10-------10-------------8-------10--10------ 
A|---------------8-8-88-811--------------810------------88-----8-----88--11-88--10--------10-10 
E|88-88----111213-------------------8--11------------811------8---811-------------------------- 
 
----------------------------------------------------------------------------------------------- 
---------810--10-10---------------------------------------------------------------------------- 
-------10----------10-1010-1010-1010-1011-1311-108-108-10----------------------------12-9------ 
--8--11--------------------------------------------------11--10--8--11-1010101010-10------12-10 
 
----------------------| 
----------------------| 
---------11-8---------| 
-9-99-99------11-9988-| 
 
  VERSE 2: 
 
G|---------------------------------------------------------------------------------------------- 
D|----810-------------810------810--10--10-------------------------810-----------1010--8-------- 
A|--10-----------8--11---8--810-------------10-----------88---8--11---8-8-8-81011-------111010-- 
E|11-------8-1011-------------------------------8-8-8-812----8---------------------------------- 
 
----------------------------------------------------------------------------------------------- 
-------------12910910912910910912910910-------------------------------------------------------- 
8---------------------------------------10-10---810-1010-10101011-1311-108-108-10-------------- 
-1110-10-8-8---------------------------------810---------------------------------11--10--8--11- 
 
-------------------------------| 
-------------------------------| 
-----------12-9-108------------| 
1010101010--------1010-910-1010| 
 
SOLO: I don't have it tabbed. 
 
  VERSE 3: 
 
G|------------------------------------------------------------------------------------------- 
D|------------------------------------------------------------------------------------------- 
A|-------------------8----------------------------------------------------------------------- 
E|-------------------------8--------------------------11-11-11-11--10-10-10-10-11--10--8--11- 
 
 
--------------------------------| 
--------------------------------| 
-----------12-9-108-------------| 
1010101010---------1010-910-1010| 
 
  VERSE 4: 
 
G|--------------------------------------------------------------------------------------- 
D|---10-----------10---------------810--10---------------810--10------------------------- 
A|-----10------8----8---8---8--811-----------8--8--8--811---------8-8-8-8--8-8-8-88------ 
E|8------118--8--------8---8--8-------------8--8--8--8--------------------8--------11108- 
 
 
------------------------------------------------------------------------------------------- 
------------------------------------------------------------------------------------------- 
----8101010101010------810101010---10-1010-1010-1010-1011-1311-108-108-10------------------ 
8811-------------888811---------811--------------------------------------1111-1010-88-1111- 
 
------------------------------------------------------------------------------------------ 
------------------------------------------------------------------------------------------ 
----------12-9-108---------------11-1111-1111-1111-11108-810-10111088-11108--------------- 
1010101010--------1010-910-1010--------------------------------------------11--10--8--11-- 
 
 
------------------------------------------------| 
-----------12-12----------------11-12-----------| 
----------------1212-----------------1111-------| 
1010101010----------10-9101010-9---------10--8--| 
 
tabbed by Achilles  
	  

Search Paypal
auto scroll beats size up size down change color hide chords drawings
tab show chords e-chords YouTube Clip e-chords hide all tabs e-chords go to top tab