Led Zeppelin

home > Led Zeppelin

Living Loving Maid Bass Tab

Led Zeppelin

Difficulty: BeginnerBeginner

tuner correct add songbook print version text version save to e-mail
chordsukulelecavacokeyboardtabbassdrumsharmonicsflute Guitar Pro
chords

Living Loving Maid

Year: 1969 - Album: Led Zeppelin II

  		G|----|----------------|----------------|----------------|----------------| 
D|----|----------------|----------------|----------------|----------------| 
A|----|----------------|----------------|----3---3-4-5---|--------3-------| 
E|----|5-5---5---5---5-|--5---5---5---0-|5-5---5-------3-|--3-3-5-----5---| 
 
G|----------------|----------------| 
D|----------------|----------------| 
A|----------------|--------5-------| 
E|3-5-----3-5-----|--5-5-5-----5---| 2X 
 
G|----------7-----|----------------|----------------|----------------| 
D|------5-7-----4-|--5---6-7-------|--------7-7---4-|5---------------| 
A|5---------------|----------7-5-6-|----------------|----7-7---5---4-| 
E|----------------|----------------|5-----5---------|------------5---| 
  Come on babe on the roundabout... 
 
G|----------------|----------------|----------------|----------------| 
D|----------------|----------------|----------------|----------------| 
A|5-------------2-|3-4---5-----5-6-|7---------------|----------------| 
E|--2-3-4-5-5-----|----------5-----|----------------|----------------| 
 
					      D.S. al CODA 
G|----------------|----------------|----------------|----------------| 
D|----------------|----------------|----------------|----------------| 
A|----------------|----------------|----3---3-4-5---|--------3-3-----| 
E|0-0-0-0-0-0-0-0-|0-0-0-0-0-0-0-0-|5-5---5-------3-|--3-3-5-----5---| 
 
G|----------------|----------------|----------------|----------------| 
D|----------------|----------------|----------------|----------------| 
A|----------------|--------5-------|----------------|----------------| 
E|3-5-----3-5-----|--5-5-5-----5---|5-5---5---5---5-|--5---5---5---0-| 
 
G|----------------|----------------|----------------|----------------| 
D|----------------|----------------|----------------|----------------| 
A|----------------|--------5-------|----------------|----------------| 
E|3-5-----3-5-----|--5-5-5-----5---|5-5---5---5---5-|--5---5---5---0-| 
 
G|----------------|----------------|----7---7-------|------5-6-7-----| 
D|----------------|----------------|--7---7---4---5-|6-7---------7---| 
A|----------------|--------5-------|5---------------|--------------5-| 
E|3-5-----3-5-----|--5-5-5-----5---|----------------|----------------| 
                                    Come on babe on the roundabout... 
 
								     to CODA 
G|----------------|----------------|----------------|----------------| 
D|--------7-7---5-|----------------|----------------|----------------| 
A|----------------|7---5-4-----3-4-|5---------5---5-|----5---5-5-6-6-| 
E|5---------------|--------5-5-----|--2-3-4-5-------|--5---5---------| 
 
G|----------------|----------------|----------------|----------------| 
D|----------------|----------------|----------------|----------------| 
A|7---------------|----------------|----------------|----------------| 
E|----------------|----------------|----------------|5-5-5-5-5-5-5-5-| 
 
G|----------------|----------------|----------------|----------------| 
D|----------------|----------------|----------------|----------------| 
A|----------------|----3---3-4-5---|--------3-------|----------------| 
E|5-5-5-5-5-5-5-5-|5-5---5-------3-|--3-3-5-----5---|3-5-----3-5-----| 
 
G|----------------|----------------|----------------|----------------| 
D|----------------|----------------|----------------|----------------| 
A|--------5-------|----------------|----------------|----3---3-4-5---| 
E|--5-5-5-----5---|5-5---5---5---5-|--5---5---5---5-|5-5---5-------5-| 
 
G|----------------|----------------|----------------|----------------| 
D|----------------|----------------|----------------|----------------| 
A|--------3-3-----|----------------|--------5-------|5---------------| 
E|--3-3-5-----5---|3-5-----3-5-----|--5-5-5-----5---|------2-3-3-4-5-| 
 
G|----------------|--------------9-|--9-------------|--------------7-| 
D|----------------|7---------------|7---7-----------|----4-5-6-7-----| 
A|----3-4-5-5-6-7-|----------------|--------7-----4-|5-5-------------| 
E|----------------|----------------|----------5-----|----------------| 
 
G|--5-------------|----------------|----------------|----------------| 
D|------7-4-------|----------------|----------------|----------------| 
A|----------7-5-6-|7---------------|----------------|----------------| 
E|----------------|----------------|----------------|0-0-0-0-0-0-0-0-| 
 
G|----------------|----------------|----------------|----------------| 
D|----------------|----------------|----------------|----------------| 
A|----------------|----3---3-4-5---|--------3-------|----------------| 
E|0-0-0-0-0-0-0-0-|5-5---5-------3-|--3-3-5-----5---|3-5-----3-5-----| 
 
G|----------------| 
D|----------------| 
A|--------5-------| 
E|--5-5-5-----5---| D.S. 
 
  CODA 
G|----------------|----------------|----------------|----------------| 
D|----------------|----------------|----------------|----------------| 
A|----------------|----------------|----3---3-4-5---|--------3-------| 
E|5-5-5-5-5-5-5-5-|5-5-5-5-5-5-5-5-|5-5---5-------3-|--3-3-5-----5---| 
 
G|----------------|----------------|----------------|----------------| 
D|----------------|----------------|----------------|----------------| 
A|----------------|--------5-------|----3---3-4-5---|--------3-------| 
E|3-5-----3-5-----|--5-5-5-----5---|5-5---5-------3-|--3-3-5-----5---| 
 
G|----------------|----------------|----------------|----------------| 
D|----------------|----------------|----------------|----------------| 
A|----------------|--------5-------|----3---3-4-5---|--------3-------| 
E|3-5-----3-5-----|--5-5-5-----5---|5-5---5-------3-|--3-3-5-----5---| 
 
G|----------------|----------------| 
D|----------------|----------------| 
A|----------------|--------5-------| 
E|3-5-----3-5-----|--5-5-5-----5---| 
	  

Search Paypal
auto scroll beats size up size down change color hide chords drawings
tab show chords e-chords YouTube Clip e-chords hide all tabs e-chords go to top tab