Led Zeppelin

home > Led Zeppelin

I Cant Quit You Baby Bass Tab

Led Zeppelin

Difficulty: EasyEasy

tuner correct add songbook print version text version save to e-mail
chordsukulelecavacokeyboardtabbassdrumsharmonicsflute Guitar Pro
chords

I Cant Quit You Baby

  		1st Verse 
------------------------------------------------ 
---------4---7---4--5--6--7--------------------- 
-----5-------------------------4--7-------7----- 
------------------------------------------------ 
 
 
------------------------------------------------ 
----------------------------4---7----------4---7 
--------4---7-------6--5---------------5-------- 
--5--------------5------------------------------ 
 
 
------------------------------------------------ 
--5--6--7---------------------------------5---7- 
------------------4---7-----5--4---------------- 
-------------5-----------------------5---------- 
 
 
------------------------------------------------ 
-----------------6--9---------------4--7-----4-- 
--4--5--6--7-------------7--6--5---------------- 
------------------------------------------------ 
 
 
------------------------------------------------ 
------------------------------------------------ 
--7---------------------------------------4--7-- 
-------5----5---6---------5----6-----5---------- 
 
 
-------------------------4/5-------------------- 
--7--------------4--7-----------7--------------- 
------7--6--5-------------------------4---7----- 
------------------------------------------------ 
 
 
--------------------------------5--7------------ 
------7---5-------------4--7-------------------- 
---------------7---5---------------------------- 
--5--------------------------------------------- 
 
 
------------------------------------------------ 
--4---5---6---7-5------------------5--6--------- 
------------------7-------4--7------------------ 
---------------------5-------------------------- 
 
 
------------------------------------------------ 
-7---------5--5----------------6--9------------- 
------5/7--------4--5--6--7-----------7--6--5--- 
------------------------------------------------ 
 
 
------------------------------------------------ 
-4--7----5-4-5--7------------------------------- 
------------------------------------------------ 
---------------------5---6-------5----6--------- 
 
Guitar solo 
----------------------9------------------------- 
--------5---5-------------------------4----4--7- 
---------------7---7------3--4--5--5------------ 
-5---5------------------------------------------ 
 
 
------------------------------------------------ 
--7--7----5--6----7--7--5----5--4--4------------ 
--------------------------------------8--7------ 
--------------------------------------------6--- 
 
                                 =======2x====== 
------------------------------------------------ 
-----------------7--7-------------------4--4--7- 
--------4--5--7--------4--5--7---5---5---------- 
--5--6------------------------------------------ 
 
=========== 
----5--6--7------------------------------------- 
-7-------------7---7--5---5----------------4---- 
-----------------------------7----7--4--7------- 
------------------------------------------------ 
 
 
---------------------------------------------7/9 
------------------------------------------------ 
---------7/9--7--9--7----7--4--5--6--7----7----- 
--5---5----------------------------------------- 
 
 
-7--------------------------6/7--6/7--6/7--5--5- 
-----9----11-----5------------------------------ 
--------------7--------5--5--------------------- 
------------------------------------------------ 
 
 
------------------------------------------------ 
-5--6--7---------------------------------------- 
------------------------------------------------ 
------------5--6---------5--6-----------5------- 
 
 
------------------------------------------------ 
------------------------------------------------ 
5-----------------------------2-2-2--3-3-4---5-- 
-----------5--------5---5-5-5------------------- 
 
--------------6h7---7-7---------------------4/5- 
-----4--5--7-------------4--5--7---------------- 
--5---------------------------------5----5------ 
------------------------------------------------ 
 
 
-5---------------------------9------------------ 
----7---7--5--6--7--------------7--7------------ 
--------------------------------------5--6--7--- 
---------------------5---5---------------------- 
 
 
------------------------------------------------ 
---------4--5--6--7--------------------------6-7 
-------------------------2--3--4--5----7--7----- 
--5---5---------------5------------------------- 
 
 
-------7-8-9------------------------------------ 
-8--9--------9---------------------------------- 
----------------5--7--6---5--5------------------ 
-------------------------------2--2-5---5-6-6--- 
 
 
------------------------------------------------ 
------------------------------------------------ 
----------------------------5/7----------------- 
--5---5----6--------5---6----------------------- 
 
 
3rd Verse 
 
------------------------------------------------ 
--------------------------4--7-----4--5--6--7--- 
-------4--7----6----5--------------------------- 
-5---------------------------------------------- 
 
 
------------------------------------------------ 
--------------5------------------5--5h7---7/10\- 
---4--7---------4--7--------5h7----------------- 
-------------------------5---------------------- 
 
 
-------------5---------------------------------- 
----------4-----5--5h7---5--4-------4--7---4-6-7 
--5----x----------------------5----------------- 
------------------------------------------------ 
 
 
------------------------------------------------ 
-----5------------------------------------5----- 
---------7--7--5--------------3/4-----7------5-6 
-5-----------------0----5--5-------------------- 
 
 
------------------------------------------------ 
------6----9------------------------------------ 
-7--------------7----6-----5--------3----------- 
------------------------------2--5-----5--0----- 
 
 
------------------------------------------------ 
------------------------------------------------ 
------------------------------------------------ 
---5---6-----------5----6-----------5---6------- 
 
=========================================================== 
h = hammeron                          ps = pick scrape 
p = pulloff                           % = repeat phrase 
~ = vibrato                           [email protected] 
b = bend                              + natural harmonic 
/\ = Slide 
* = Artificial Harmonic 
x = ghost note 
tr = trill 
=========================================================== 
	  

Search Paypal
auto scroll beats size up size down change color hide chords drawings
tab show chords e-chords YouTube Clip e-chords hide all tabs e-chords go to top tab