Led Zeppelin

home > Led Zeppelin

Dazed And Confused Bass Tab

Led Zeppelin

Difficulty: IntermediateIntermediate

tuner correct add songbook print version text version save to e-mail
chordsukulelecavacokeyboardtabbassdrummharmonicsflute Guitar Pro
chords

Dazed And Confused

Year: 1969 - Album: Mothership 2CD/1DVD

  		      Afinação
      4321
      EADG

G|--|------------------------|------------------------|
D|--|------------------------|------------------------|
A|--|10----9-----8-----7-----|5-----4-----3-----2-----|
E|0-|----------------------0-|----------------------0-| 7X

G|------------------------|-------------------|
D|------------------------|-------------------|
A|10----9-----8-----7-----|5-----4-----3---2--|
E|----------------------0-|-------------------|

G|------------|------------|------------|------------|
D|--------79--|--------79--|--------79--|--------79--|
A|------79--79|------79--79|------79--79|------79--79|
E|7-7-7-------|7-7-7-------|7-7-7-------|7-7-7-------|

G|------------------------|------------------------|
D|------------------------|------------------------|
A|------10----9-----8-----|7-----5-----4-----3---2-|
E|0---0-------------------|----0-------------------|

G|------------------------|------------------------|
D|------------------------|------------------------|
A|10----9-----8-----7-----|5-----4-----3-----2-----|
E|----------------------0-|----------------------0-| 3X

G|------------|------------|------------|------------|
D|--------79--|--------79--|--------79--|--------79--|
A|------79--79|------79--79|------79--79|------79--79|
E|7-7-7-------|7-7-7-------|7-7-7-------|7-7-7-------|

G|------------|------------|------------|------------|------------|
D|------------|55552-------|55552-------|55552-------|------------|
A|77775-------|------------|------------|------------|77775-------|
E|------------|------------|------------|------------|------------|

G|------------|------------|------------|------------|------------|
D|55552-------|7777--------|9999--------|7777--------|55552-------|
A|------------|----7-------|----7-------|----7-------|------------|
E|------------|------------|------------|------------|------------|

G|------------|------------|------------|------------|------------|
D|------------|55552-------|9999--------|7777--------|------------|
A|555557------|------------|----7-------|----7-------|555557------|
E|------------|------------|------------|------------|------------|

G|------------|------------|------------|------------|------------|
D|55550-------|55550-------|9999--------|55552-------|99997-------|
A|------------|------------|----7-------|------------|------------|
E|------------|------------|------------|------------|------------|

G|------------|------------|------------|------------|------------|
D|55552-------|55552-------|9999--------|55552-------|9999--------|
A|------------|------------|----7-------|------------|----7-------|
E|------------|------------|------------|------------|------------|

G|9-----------|9-----------|9-----------|--979-------|--797-------|
D|--79--------|--79--------|--79--------|------------|------------|
A|-7--7-------|-7--7-------|-7--7-------|79----------|79----------|
E|------------|------------|------------|------------|------------|


G|--979-------|97----------|------------|------------|------------|
D|------------|------------|------------|------------|------------|
A|79----------|--797-------|78888-------|88888-------|88888-------|
E|------------|------------|------------|------------|------------|

G|------------|----------------|----------------|
D|------------|----------------|----------------|
A|88888-------|7---------------|7---------------|
E|------------|----------------|----------------|

G|----------------|----------------|
D|--------5-7-----|--------5-7-5---|
A|----5-7-----5-7-|----5-7---------|
E|5-7-------------|5-7-------------| 32X

G|----------------|----------------|----------------|----------------|
D|----------------|----------------|--------------5-|----5---5---5---|
A|7---7---7-----5-|5---------------|7---7---7-------|----------------|
E|----------------|--5-5---5---5---|----------------|----------------| 3X

G|9-----------|9-----------|9-----------|--979-------|--797-------|
D|--79--------|--79--------|--79--------|------------|------------|
A|-7--7-------|-7--7-------|-7--7-------|79----------|79----------|
E|------------|------------|------------|------------|------------|

G|------------------------|------------------------|
D|------------------------|------------------------|
A|------10----9-----8-----|7-----5-----4-----3---2-|
E|0---0-------------------|----0-------------------|

G|------------------------|------------------------|
D|------------------------|------------------------|
A|10----9-----8-----7-----|5-----4-----3-----2-----|
E|----------------------0-|----------------------0-| 3X

G|9-----------|9-----------|9-----------|--979-------|--797-------|
D|--79--------|--79--------|--79--------|------------|------------|
A|-7--7-------|-7--7-------|-7--7-------|79----------|79----------|
E|------------|------------|------------|------------|------------|

G|------------|------------|------------|------------|------------|
D|------------|------------|------------|------------|-----0000---|
A|77775-------|------------|------------|55553-------|77775----543|
E|------------|55553-------|77775-------|------------|------------|

G|------------|------------|------------|------------|------------|
D|------------|------------|------------|------------|------------|
A|0000--0000--|0000--0000--|0000--0000--|0000--0000--|55555-55555-|
E|------------|------------|------------|------------|------------|

G|------------|------------|------------|------------|
D|------------|------------|------------|------------|
A|55555-55555-|55555-55555-|55555-55557-|------------|
E|------------|------------|------------|------------|
	  

Search Paypal
auto scroll beats size up size down change color hide chords drawings
tab show chords e-chords YouTube Clip e-chords hide all tabs e-chords go to top tab