Led Zeppelin

home > Led Zeppelin

Bring It On Home Bass Tab

Led Zeppelin

Difficulty: EasyEasy

tuner correct add songbook print version text version save to e-mail
chordsukulelecavacokeyboardtabbassdrummharmonicsflute Guitar Pro
chords

Bring It On Home

Year: 1969 - Album: Led Zeppelin II

  		      Afinação
      4321
      EADG

O baixo começa em aproximadamente 01:48

G|----------------|----------------|
D|-------9--7676--|-------9--767---|
A|--57----------7-|--57------------|
E|57--0-----------|57--0-----------| 3X

G| |----------------|----------------|----------------|----------------|
D|o|----------------|----------------|----------------|----------------|
A|o|--------------7-|7--7-7--77------|7--777--------7-|7--7-7-7-7-7----|
E| |0--0---4-5-7-9-9|----9--9----3-0-|-------4-5-7-9--|----9-------3-0-|
    Gotta tell you baby...            Tryin' to love me baby...
    Tell you pretty baby...           I'm gonna keep you lovin'...

G|----------------|----------------|----------------|----------------|
D|----------------|----------------|----------------|----------------|
A|7--777--------7-|7--7-7-7-7-7----|7--777-------7--|7--777-4-7------|
E|-------4-5-7-9--|----9-------3-0-|-------457-79--9|------------3-0-|

G|---------7-----9|----------------|-----------7---9|
D|-------79--9911-|----------------|---------79-911-|
A|7--777----------|7--75-----------|7--777-7--------|
E|----------------|-----7-5-4-43-0-|----------------|

G|----------------|-----------7---9|----------------|----------------|
D|----------------|---------79-911-|----------------|----------------|
A|7--777-5--------|7--777-7--------|7--777-5--------|7--77--7---775--|
E|---------7-53-0-|----------------|---------7-53-0-|--------------7-|

G|----------------|----------------|----------------|----------------|
D|-------9--767---|-------9--7676--|-------9--767---|-------9--7676--|
A|--57------------|--57----------7-|--57------------|--57----------7-|
E|57--0-----------|57--0-----------|57--0-----------|57--0-----------|
                                   __________________
                                   1.                |
G|----------------|----------------|---------------- |
D|-------9--767---|-------9-97676--|-------9-9767---o|
A|--57------------|--57----------7-|--57------------o|
E|57--0-----------|57--0-----------|57--0----------- |
 _________________
 2.
G|----------------|----------------|
D|-------9--767---|7---------------|
A|--57------------|----------------|
E|57--0-----------|----------------|

G|----------------|
D|----------------|
A|----------------|
E|----------------| 8X
	  

Search Paypal
auto scroll beats size up size down change color hide chords drawings
tab show chords e-chords YouTube Clip e-chords hide all tabs e-chords go to top tab