Led Zeppelin

home > Led Zeppelin

Baby Im Gonna Leave You Bass Tab

Led Zeppelin

Difficulty: ExpertExpert

tuner correct add songbook print version text version save to e-mail
chordsukulelecavacokeyboardtabbassdrumsharmonicsflute Guitar Pro
chords

Baby Im Gonna Leave You

  		INTRO
|-----|-----|-----|-----|-----|-----|-----|-----|
|-----|-----|-----|-----|-----|-----|-----|-----|
|-----|-----|-----|-----|-----|-----|-----|-----|
|-----|-----|-----|-----|-----|-----|-----|-----|

VERSE 1
|-----|-----|-----|-----|-----|-----|-----|-----|-----|-----|-----|-----|-----|-----|-----|
|-----|-----|-----|-----|-----|-----|-----|-----|-----|-----|-----|-----|-----|-----|-----|
|-----|-----|-----|-----|-----|-----|-----|-----|-----|-----|-----|-----|-----|-----|-----|
|-----|-----|-----|-----|-----|-----|-----|-----|-----|-----|-----|-----|-----|-----|-----|

  I'll  leave you when the    summer time      leave you when the    summer ...
|-----|--------------------|--------------|-----------------------|--------------|
|-----|--3-----------------|--2-----------|--3--------------------|--2-----------|
|-----|--------------------|--------------|-----------------------|--------------|
|-----|--------------------|--------------|-----------------------|--------------|

                   leave you...   the summer...    
|------|------|----------------|----------------|-----------------------------------|
|--7---|--5---|--4-------------|--3-----2-------|--7-----7--7--7-----7-----7-----7--|
|------|------|----------------|----------------|-----------------------------------|
|------|------|----------------|----------------|-----------------------------------|

|-----------------------------|---------------------------------------|-----------------------|
|--7---7---7---7---7---7---7--|--7---7---7---7---7-----7-----7-----7--|--7--7--7--7--7--7--7--|
|-----------------------------|---------------------------------------|-----------------------|
|-----------------------------|---------------------------------------|-----------------------|

|-------------------------------|-----------------------|-------------------------------|
|--7---7--7--7---7-----7-----7--|--7--7--7--7--7--7--7--|--7---7--7--7---7-----7-----7--|
|-------------------------------|-----------------------|-------------------------------|
|-------------------------------|-----------------------|-------------------------------|

               TO CODAS 1&2
|-----------------------------|-----|--12--|--11--|--1O-----9----------|-----|-----|
|--7---7---7---7---7---7---7--|--7--|------|------|---------------1O--|--7--|--5--|
|-----------------------------|-----|------|------|--------------------|-----|-----|
|-----------------------------|-----|------|------|--------------------|-----|-----|

   I ain't joking    woman...      ramble
|-----------------|------------|----------|--12--|--11--|--1O-----9--|--2--|-----|-----|
|--4--------------|--3-----2/--|---7------|------|------|-------------|-----|--5--|--4--|
|-----------------|------------|----------|------|------|-------------|-----|-----|-----|
|-----------------|------------|----------|------|------|-------------|-----|-----|-----|

   really got...                                              CODA 1
|-----------------|-----|-----|-----|-----|-----|-----|-----|--------|-----|-----|-----|-----|
|--3-----2--------|--3--|--2--|--3--|--2--|--7--|--5--|--4--|--3-----|--7--|-----|-----|-----|
|-----------------|-----|-----|-----|-----|-----|-----|-----|--------|-----|-----|-----|-----|
|-----------------|-----|-----|-----|-----|-----|-----|-----|--------|-----|-----|-----|-----|

|-----|-----|-----|-----|---------------------------|-----------------------------|
|-----|-----|-----|-----|--7---7---7---7---7-----7--|--5---5---5---5-----5-----5--|
|-----|-----|-----|-----|---------------------------|-----------------------------|
|-----|-----|-----|-----|---------------------------|-----------------------------|

|---------------------------|
|--4---4---4---4---4-----4--|
|---------------------------|
|---------------------------|

TO CODAS 3 and 4
   oh                          ba                           by
|---------------------------|---------------------------|---------------------------|
|--3---3---3---3---2-----2--|--7---7---7---7---7-----7--|--5---5---5---5---5-----5--|
|---------------------------|---------------------------|---------------------------|
|---------------------------|---------------------------|---------------------------|

                       you      know            I've       got to leave       ya
|---------------------------|---------------------------|---------------------------|
|--4---4---4---4---4-----4--|--3---3---3---3---2-----2--|--7---7---7---7---7-----7--|
|---------------------------|---------------------------|---------------------------|
|---------------------------|---------------------------|---------------------------|

                              BASS FILL 1
|---------------------------|----------------------4---1------|---------------------------|
|--5---5---5---5---5-----5--|--3---3---3---3---2-----------2--|--4---4---4---4---4-----4--|
|---------------------------|---------------------------------|---------------------------|
|---------------------------|---------------------------------|---------------------------|

   oh                          I can hear it call__        ing me
|---------------------------|---------------------------|---------------------------|
|--3---3---3---3---2-----2--|--3---3---3---3---3-----3--|--2---2---2---2---2-----2--|
|---------------------------|---------------------------|---------------------------|
|---------------------------|---------------------------|---------------------------|

   I said don't you hear it     calling me the way it
|---------------------------|---1---4---4---1---4---(1)---4--|
|--3---3---3---3---3-----3--|--------------------------------|
|---------------------------|--------------------------------|
|---------------------------|--------------------------------|

CODA 2                                                         I know         I know
|-----|-----|-----|-----------|-----|-----|-----|-----------|--------------|---------|
|--7--|--5--|--4--|--3-----2--|--7--|--5--|--4--|--3-----2--|--7-----5--7--|--5------|
|-----|-----|-----|-----------|-----|-----|-----|-----------|--------------|---------|
|-----|-----|-----|-----------|-----|-----|-----|-----------|--------------|---------|

   I know I'm never   never never      leave you baby             I've gotta  
|------------------|---------------|------------------|-----|----------------|
|--4---------------|--3-----2------|------------------|--5--|--4-------------|
|------------------|---------------|--O---------------|-----|----------------|
|------------------|---------------|------------------|-----|----------------|

   go away from this place                        I     gotta quit you yeah        oh
|--------------------------|---------------|---------|-----------------------|-----------|
|--3-----------------------|--------5---7--|--5------|--4--------------------|--3-----2--|
|--------------------------|--O------------|---------|-----------------------|-----------|
|--------------------------|---------------|---------|-----------------------|-----------|

   baby    baby    baby    baby                    baby
|-------|-------|-------|-----------------------|---------------------------|
|-------|--5----|--4----|--3-----2---O----------|--7---7---7---7---7-----7--|
|--O----|-------|-------|----------------3---2--|---------------------------|
|-------|-------|-------|-----------------------|---------------------------|

   baby                        baby                        oh
|---------------------------|---------------------------|---------------------------|
|--5---5---5---5---5-----5--|--4---4---4---4---4-----4--|--3---3---3---3---2-----2--|
|---------------------------|---------------------------|---------------------------|
|---------------------------|---------------------------|---------------------------|

                                                                           don't you
|---------------------------|---------------------------|---------------------------|
|--7---7---7---7---7-----7--|--5---5---5---5---5-----5--|--4---4---4---4---4-----4--|
|---------------------------|---------------------------|---------------------------|
|---------------------------|---------------------------|---------------------------|

   hear it calling him?                             oh        woman                  woman
|-------------------------------|--------------|--------|-----------|-----------|-----------|
|--3---3-----3-----3---2-----2--|--7-----5--7--|--5-----|--4--------|--3-----2--|-----------|
|-------------------------------|--------------|--------|-----------|-----------|--O--------|
|-------------------------------|--------------|--------|-----------|-----------|-----------|

    I know      I   know it feels    good to have you back a__   gain and not know that one
|----------|-----|----------------|---------------------------|-----------------------------|
|--5-------|--4--|--3-----2-------|--------5--7---------------|--5--------------------------|
|----------|-----|----------------|--O------------------------|-----------------------------|
|----------|-----|----------------|---------------------------|-----------------------------|

   day baby   it's really gonna     grow yes it is       we gonna    
|----------|---------------------|-----------------|--------------|
|--4-------|--3-----2------------|--------5--7-----|--5-----5-----|
|----------|---------------------|--O--------------|--------------|
|----------|---------------------|-----------------|--------------|

                                                   D.S. al CODA 3
   go    walking through the     park every day
|-----------------------------|-------------------------------|
|--4-----4---4---4-----4---4--|--3---3---3-----2---O----------|
|-----------------------------|------------------------3---2--|
|-----------------------------|-------------------------------|

CODA 3
   go away                                                      oh
|--------------|---------------|-----------------------|-------------------------------|
|--7-----5--7--|--5-----7---5--|--4-----7-----4-----7--|--3-----------2-----O----------|
|--------------|---------------|-----------------------|------O---3-------------3---2--|
|--------------|---------------|-----------------------|-------------------------------|

                                                                           sweet baby
|--------------|-----|-----------------------|-------------------------|--------------|
|--------5--7--|--5--|--4-----7-----4-----O--|--3-----3---2-----2---2--|--------5--7--|
|--O-----------|-----|-----------------------|-------------------------|--O-----------|
|--------------|-----|-----------------------|-------------------------|--------------|

                  it was really           really good              you made me
|-----|-----|-----------------------|------------------|-----|-----------------|
|--5--|--4--|--3-----2-----2-----2--|------------------|--5--|--4--------------|
|-----|-----|-----------------------|--O---------------|-----|-----------------|
|-----|-----|-----------------------|------------------|-----|-----------------|

                                                                              CODA 4
   happy every single day                              but now         I've got to go a
|-------------------------|---------------|-----|---------------|------------------------|
|--3-----3---2-----2------|---------5--7--|--5--|--4------------|--3-----2---O-----------|
|-------------------------|--O------------|-----|---------------|----------------3---2---|
|-------------------------|---------------|-----|---------------|------------------------|

CODA 4
         that's when it's    calling me    I said that's when it's    calling me
|-----|-------------------|-------------|--------------------------|-------------|
|--3--|-------------------|--2----------|--------------------------|--2----------|
|-----|-------------------|-------------|--------------------------|-------------|
|-----|-------------------|-------------|--------------------------|-------------|

   back home
|-------------|---------|---------|-----|-----|-----|-----|
|-------------|---------|---------|-----|-----|-----|-----|
|-------------|--4---3--|--2---1--|--O--|-----|-----|-----|
|-------------|---------|---------|-----|-----|-----|-----|

www.paulislivefaclube.hpg.com.br
	  

Search Paypal
auto scroll beats size up size down change color hide chords drawings
tab show chords e-chords YouTube Clip e-chords hide all tabs e-chords go to top tab