Lacuna Coil

Tight Rope

Lacuna Coil

bass

by  EDUARDO_LYVIO

save to print version add songbook text version e-mail correct tuner
chordsukulelecavacokeyboardtabbassdrumsharmonicaflute Guitar Pro
close

there isn't a video lesson for this song

chords

Tight Rope

	  		Obs: as batidas não são necessariamente essas, mas a harmonia ta certa. 
                                                                               
G||-------------------------|------------------------|------------------------| 
D||-------------------------|------------------------|------------------------| 
A||-------------------------|------------------------|------------------------| 
E||--0--0-----0----0--1--0--|----0-----0----0--1--0--|----0-----0----0--1--0--| 
B||--------4----------------|-------4----------------|-------4----------------| 
 
------------------------|------------------------|------------------------| 
------------------------|------------------------|------------------------| 
------------------------|------------------------|------------------------| 
----0-----0----0--1--0--|----0-----0----0--1--0--|----0-----0----0--1--0--| 
-------4----------------|-------4----------------|-------4----------------| 
 
------------------------|------------------|------------------------| 
------------------------|------------------|------------------------| 
------------------------|------------------|------------------------| 
----0-----0----0--1--0--|------------------|--0----0--0--0--1--0----| 
-------4----------------|------------------|------------------------| 
 
----------------------|------------------------|-----------------------| 
----------------------|------------------------|-----------------------| 
----------------------|------------------------|-----------------------| 
----0------0--1--0----|--0--0----0--0--1--0----|----0--0----0--1--0----| 
----------------------|------------------------|-----------------------| 
 
------------------------|-----------------------|------------------------| 
------------------------|-----------------------|------------------------| 
------------------------|-----------------------|------------------------| 
--0--0----0--0--1--0----|----0--0----0--1--0----|--0--0----0--0--1--0----| 
------------------------|-----------------------|------------------------| 
 
-----------------------|-----------------------|-----------------------| 
-----------------------|-----------------------|-----------------------| 
-----------------------|-----------------------|-----------------------| 
----0--0----0--1--0----|--0------0--0--0-------|-----------------------| 
-----------------------|------------------3----|----3--3----3----3--3--| 
 
-----------------------|-----------------------|------------------------| 
-----------------------|-----------------------|------------------------| 
-----------------------|-----------------------|------------------------| 
-----------------------|-----------------------|--0--0----0--0--0-------| 
--1--1----1--1----3----|----3--3----3----3--3--|-------------------3----| 
 
-----------------------|-----------------------|-----------------------| 
-----------------------|-----------------------|-----------------------| 
-----------------------|-----------------------|-----------------------| 
-----------------------|-----------------------|-----------------------| 
----3--3----3----3--3--|--1--1----1--1----3----|----3--3----3----3--3--| 
 
------------------------|-----------------------|-----------------------| 
------------------------|-----------------------|-----------------------| 
------------------------|-----------------------|-----------------------| 
--0--0----0--0--0-------|-----------------------|-----------------------| 
-------------------3----|----3--3----3----3--3--|--1--1----1--1----3----| 
 
 
                                                                          
-----------------------|------------------------|-----------------------| 
-----------------------|------------------------|-----------------------| 
-----------------------|------------------------|-----------------------| 
-----------------------|--0--0----0--0--0-------|-----------------------| 
----3--3----3----3--3--|-------------------3----|----3--3----3----3--3--| 
 
-----------------------|-----------------------|-------------------| 
-----------------------|-----------------------|-------------------| 
-----------------------|-----------------------|-------------------| 
-----------------------|-----------------------|--0----------------| 
--1--1----1--1----3----|----3--3----3----3--3--|-------------------| 
 
------------------|----------------------|---------------------| 
------------------|--2------2--2------2--|--5------4------5----| 
------------------|----------------------|---------------------| 
------------------|----------------------|---------------------| 
------------------|----------------------|---------------------| 
 
----------------------------|---------------------|----------------------| 
----------------------------|--5------4------5----|--2------2--2------2--| 
--3-3-3-3-3-3-3-3-3------3--|---------------------|----------------------| 
----------------------------|---------------------|----------------------| 
----------------------------|---------------------|----------------------| 
 
---------------------|----------------------------|------------------------| 
--5------4------5----|----------------------------|--0--0----0--0----0--0--| 
---------------------|--3-3-3-3-3-3-3-3-3------3--|------------------------| 
---------------------|----------------------------|------------------------| 
---------------------|----------------------------|------------------------| 
 
----------------------|---------------------|----------------------------| 
--2------2--2------2--|--5------4------5----|----------------------------| 
----------------------|---------------------|--3-3-3-3-3-3-3-3-3------3--| 
----------------------|---------------------|----------------------------| 
----------------------|---------------------|----------------------------| 
 
---------------------|----------------------|---------------------| 
--5------4------5----|--2------2--2------2--|--5------4------5----| 
---------------------|----------------------|---------------------| 
---------------------|----------------------|---------------------| 
---------------------|----------------------|---------------------| 
 
----------------------------|------------------------|------------------------| 
----------------------------|--0--0----0--0----0--0--|------------------------| 
--3-3-3-3-3-3-3-3-3------3--|------------------------|------------------------| 
----------------------------|------------------------|--0----0--0--0--1--0----| 
----------------------------|------------------------|------------------------| 
 
----------------------|------------------------|-----------------------| 
----------------------|------------------------|-----------------------| 
----------------------|------------------------|-----------------------| 
----0------0--1--0----|--0--0----0--0--1--0----|----0--0----0--1--0----| 
----------------------|------------------------|-----------------------| 
 
------------------------|-----------------------|------------------------| 
------------------------|-----------------------|------------------------| 
------------------------|-----------------------|------------------------| 
--0--0----0--0--1--0----|----0--0----0--1--0----|--0--0----0--0--1--0----| 
------------------------|-----------------------|------------------------| 
 
-----------------------|-----------------------|-----------------------| 
-----------------------|-----------------------|-----------------------| 
-----------------------|-----------------------|-----------------------| 
----0--0----0--1--0----|--0------0--0--0-------|-----------------------| 
-----------------------|------------------3----|----3--3----3----3--3--| 
 
-----------------------|-----------------------|------------------------| 
-----------------------|-----------------------|------------------------| 
-----------------------|-----------------------|------------------------| 
-----------------------|-----------------------|--0--0----0--0--0-------| 
--1--1----1--1----3----|----3--3----3----3--3--|-------------------3----| 
 
-----------------------|-----------------------|-----------------------| 
-----------------------|-----------------------|-----------------------| 
-----------------------|-----------------------|-----------------------| 
-----------------------|-----------------------|-----------------------| 
----3--3----3----3--3--|--1--1----1--1----3----|----3--3----3----3--3--| 
 
------------------------|-----------------------|-----------------------| 
------------------------|-----------------------|-----------------------| 
------------------------|-----------------------|-----------------------| 
--0--0----0--0--0-------|-----------------------|-----------------------| 
-------------------3----|----3--3----3----3--3--|--1--1----1--1----3----| 
 
-----------------------|------------------------|-----------------------| 
-----------------------|------------------------|-----------------------| 
-----------------------|------------------------|-----------------------| 
-----------------------|--0--0----0--0--0-------|-----------------------| 
----3--3----3----3--3--|-------------------3----|----3--3----3----3--3--| 
 
-----------------------|-----------------------|-------------------| 
-----------------------|-----------------------|-------------------| 
-----------------------|-----------------------|-------------------| 
-----------------------|-----------------------|--0----------------| 
--1--1----1--1----3----|----3--3----3----3--3--|-------------------| 
 
------------------|----------------------|---------------------| 
------------------|--2------2--2------2--|--5------4------5----| 
------------------|----------------------|---------------------| 
------------------|----------------------|---------------------| 
------------------|----------------------|---------------------| 
 
----------------------------|---------------------|----------------------| 
----------------------------|--5------4------5----|--2------2--2------2--| 
--3-3-3-3-3-3-3-3-3------3--|---------------------|----------------------| 
----------------------------|---------------------|----------------------| 
----------------------------|---------------------|----------------------| 
 
---------------------|----------------------------|------------------------| 
--5------4------5----|----------------------------|--0--0----0--0----0--0--| 
---------------------|--3-3-3-3-3-3-3-3-3------3--|------------------------| 
---------------------|----------------------------|------------------------| 
---------------------|----------------------------|------------------------| 
 
----------------------|---------------------|----------------------------| 
--2------2--2------2--|--5------4------5----|----------------------------| 
----------------------|---------------------|--3-3-3-3-3-3-3-3-3------3--| 
----------------------|---------------------|----------------------------| 
----------------------|---------------------|----------------------------| 
 
---------------------|----------------------|---------------------| 
--5------4------5----|--2------2--2------2--|--5------4------5----| 
---------------------|----------------------|---------------------| 
---------------------|----------------------|---------------------| 
---------------------|----------------------|---------------------| 
 
----------------------------|------------------------|-------------------------| 
----------------------------|--0--0----0--0----0--0--|-------------------------| 
--3-3-3-3-3-3-3-3-3------3--|------------------------|-------------------------| 
----------------------------|------------------------|--0--0--0--0--0----0--0--| 
----------------------------|------------------------|-------------------------| 
 
---------------------|-------------------------|---------------------| 
---------------------|-------------------------|---------------------| 
---------------------|-------------------------|---------------------| 
--0--0--0------------|--0--0--0--0--0----0--0--|--0--0--0------------| 
---------------------|-------------------------|---------------------| 
 
-------------------------|---------------------|-------------------------| 
-------------------------|---------------------|-------------------------| 
-------------------------|---------------------|-------------------------| 
--0--0--0--0--0----0--0--|--0--0--0------------|--0--0--0--0--0----0--0--| 
-------------------------|---------------------|-------------------------| 
 
---------------------|-------------------------|---------------------| 
---------------------|-------------------------|---------------------| 
---------------------|-------------------------|---------------------| 
--0--0--0------------|--0--0--0--0--0----0--0--|--0--0--0------------| 
---------------------|-------------------------|---------------------| 
 
-------------------------|---------------------|-------------------------| 
-------------------------|---------------------|-------------------------| 
-------------------------|---------------------|-------------------------| 
--0--0--0--0--0----0--0--|--0--0--0------------|--0--0--0--0--0----0--0--| 
-------------------------|---------------------|-------------------------| 
 
---------------------|-------------------------|---------------------| 
---------------------|-------------------------|---------------------| 
---------------------|-------------------------|---------------------| 
--0--0--0------------|--0--0--0--0--0----0--0--|--0--0--0------------| 
---------------------|-------------------------|---------------------| 
 
----------------------|---------------------|----------------------------| 
--2------2--2------2--|--5------4------5----|----------------------------| 
----------------------|---------------------|--3-3-3-3-3-3-3-3-3------3--| 
----------------------|---------------------|----------------------------| 
----------------------|---------------------|----------------------------| 
 
---------------------|----------------------|---------------------| 
--5------4------5----|--2------2--2------2--|--5------4------5----| 
---------------------|----------------------|---------------------| 
---------------------|----------------------|---------------------| 
---------------------|----------------------|---------------------| 
 
----------------------------|------------------------|----------------------| 
----------------------------|--0--0----0--0----0--0--|--2------2--2------2--| 
--3-3-3-3-3-3-3-3-3------3--|------------------------|----------------------| 
----------------------------|------------------------|----------------------| 
----------------------------|------------------------|----------------------| 
 
---------------------|----------------------------|---------------------| 
--5------4------5----|----------------------------|--5------4------5----| 
---------------------|--3-3-3-3-3-3-3-3-3------3--|---------------------| 
---------------------|----------------------------|---------------------| 
---------------------|----------------------------|---------------------| 
 
----------------------|---------------------|----------------------------| 
--2------2--2------2--|--5------4------5----|----------------------------| 
----------------------|---------------------|--3-3-3-3-3-3-3-3-3------3--| 
----------------------|---------------------|----------------------------| 
----------------------|---------------------|----------------------------| 
 
------------------------|----------------------|---------------------| 
--0--0----0--0----0--0--|--2------2--2------2--|--5------4------5----| 
------------------------|----------------------|---------------------| 
------------------------|----------------------|---------------------| 
------------------------|----------------------|---------------------| 
 
----------------------------|---------------------|----------------------| 
----------------------------|--5------4------5----|--2------2--2------2--| 
--3-3-3-3-3-3-3-3-3------3--|---------------------|----------------------| 
----------------------------|---------------------|----------------------| 
----------------------------|---------------------|----------------------| 
 
---------------------|----------------------------|------------------------| 
--5------4------5----|----------------------------|--0--0----0--0----0--0--| 
---------------------|--3-3-3-3-3-3-3-3-3------3--|------------------------| 
---------------------|----------------------------|------------------------| 
---------------------|----------------------------|------------------------| 
 
----------------------|---------------------|----------------------------| 
--2------2--2------2--|--5------4------5----|----------------------------| 
----------------------|---------------------|--3-3-3-3-3-3-3-3-3------3--| 
----------------------|---------------------|----------------------------| 
----------------------|---------------------|----------------------------| 
 
---------------------|----------------------|---------------------| 
--5------4------5----|--2------2--2------2--|--5------4------5----| 
---------------------|----------------------|---------------------| 
---------------------|----------------------|---------------------| 
---------------------|----------------------|---------------------| 
 
----------------------------|------------------------|-------------------|| 
----------------------------|--0--0----0--0----0--0--|-------------------|| 
--3-3-3-3-3-3-3-3-3------3--|------------------------|-------------------|| 
----------------------------|------------------------|--0----------------|| 
----------------------------|------------------------|-------------------|| 
 
 
 

		  

See also:

bass Lacuna Coil - This is My Dream bass Lacuna Coil - Purify bass Lacuna Coil - Tight Rope bass Lacuna Coil - Angels Punishment bass Rhapsody - Emerald Sword bass Lacuna Coil - When a Dead Man Walks
e-chords

Other versions:

bass Lacuna Coil - Tight Rope
auto scroll beats size up size down change color hide chords drawings
tab show chords e-chords YouTube Clip e-chords hide all tabs e-chords go to top tab

share