La renga

home > La renga

Viva Pappo Bass Tab

La renga

Difficulty: AdvancedAdvanced

by JESSBT

tuner correct add songbook print version text version save to e-mail
chordsukulelecavacokeyboardtabbassdrumsharmonicsflute Guitar Pro
chords

Viva Pappo

(Chizzo)

  		Arranca la guitarra..después entra Tanque y por último Tete. 


Podes estirar hasta el traste 12 al principio para que quede bien 

G-------------------------------  esto seria a los 7 segundos 
D-------------------------------  Tratá de caer justo en el tiempo. 
A--2---------------------->12--- 
E------------------------------- 


Intro: 

G-------------------------------   (x2) 
D--------------4-2-0-22--------- 
A--2-0-2-0-2-0------------------ 
E------------------------------- 


Montado al Harley, cruzó el más allá... 

(en los versos dale bien punk con púa para que suene potente) 


G---------------------------------------- (x2) 
D-----------------3---------------------- 
A-777777---55555----5-3------------------ 
E------------------------55555--77777---- 


Cerveza fresca... 

G------------------------------------------------------------- 
D--------------3---------------------------------------------- 
A--------55555---5-3-------22222-0*-------55555------(2<-->9)- 
E--33333-------------55555---------33333-------00000---------- 

el 0 * tenes que tocarlo rápido, es un empalme para pasar 
de vuelta a Sol 

Después desde los "mi" estira a fa# desde si. 


Repite intro... (x4) 

a la quinta va esto.. 

G-------------- 
D-------------- 
A-7--77-77--77- 
E-------------- 


Después marca solo el acorde, no lo hagas punk...sería así: 

G-------------- (x2) (contá 4 tiempos entre nota y nota) 
D-------------- 
A-7-5-0-2------ 
E-------------- 

Reciban a los dioses... 

G---------------------------------------- (x2) 
D-----------------3---------------------- 
A-777777---55555----5-3------------------ 
E------------------------55555--77777---- 

Quién espera el tren de las 16?... 


G------------------------------------------------------------- 
D--------------3---------------------------------------------- 
A--------55555---5-3-------22222-0*-------55555------(2<-->9)- 
E--33333-------------55555---------33333-------00000---------- 


Repite intro pero con unos cambios: 

G-------------------------------   (x1) 
D--------------4-2-0-22--------- 
A--2-0-2-0-2-0------------------ 
E------------------------------- 


G-----------------------------------------  (x1) 
D--------------4-2-0-22-4-2-0-22-4-2-0-22- 
A--2-0-2-0-2-0---------------------------- 
E----------------------------------------- 


Después marca el acorde como antes...(usá notas de paso asi no 
                                       queda muy vacío) 
G--------------   (x2) 
D-------------- 
A-7-5-0-2------ 
E-------------- 


Repite intro: 

G-------------------------------   (x4) 
D--------------4-2-0-22--------- 
A--2-0-2-0-2-0------------------ 
E------------------------------- 


Y a la quinta va esta.. (final) 

G------------- 
D------------- 
A------------- (estirá al traste 1 y cortá el sonido rápido 
E-7-5-7--->1--  asi queda el final violento) 


Aguante La Renga, saludos...(dudas o sugerencias a) 
[email protected]
	  

Search Paypal
auto scroll beats size up size down change color hide chords drawings
tab show chords e-chords YouTube Clip e-chords hide all tabs e-chords go to top tab