La renga

home > La renga

Lo Fragil De La Locura Bass Tab

La renga

Difficulty: nolevelnolevel

by PAULLET3

tuner correct add songbook print version text version save to e-mail
chordsukulelecavacokeyboardtabbassdrumsharmonicsflute Guitar Pro
chords

Lo Fragil De La Locura

  		LO FRAGIL DE LA LOCURA, BASS TAB BY ENCHULIZZI 

G:|---------------------------------------------------------------------| x 4 
D:|---------------------------------------------------------------------|                  
A:|-----------------------------------------7--6--5---------------------| 
E:|-------------------5-5s1---------------------------------------------|   INTRO 

estrofa 1 

La sangre se inquietaba en mis venas, y aquel verano al norte parti  

G:|---------------------------------------------------------------------| x 2 
D:|---------------------------------------------------------------------|                  
A:|----------------------------------------3----------------------------| 
E:|-5------------------1-----------------------------------3------------|   


     Ver la tierra baņada de sol, respirar aire de las alturas, 
G:|---------------------------------------------------------------------| x 2 
D:|---------------------------------------------------------------------|                  
A:|-5------------------------------------3------------------------------| 
E:|----------------1-----------------------------------------3----------|  


estribillo 
     Pero tambien la realidad mostro   

G:|---------------------------------------------------------------------| x 6 
D:|---------------------------------------------------------------------|                  
A:|----------------------------------------333333333333333--------------| 
E:|-55555555555555555-11111111111111111111-----------------33333333333--| 

estrofa 2 
   Me invito a mascar de su hierba, y a morder de la pura verdad    
G:|---------------------------------------------------------------------| x 4 
D:|---------------------------------------------------------------------|                  
A:|----------------------------------------3-3333333333333--------------| 
E:|-5-555555555555555-1-111111111111111111-----------------3-333333333--| 


REPITE INTRO X1 

DURANTE EL SOLO DE GUITARRA: 

G:|---------------------------------------------------------------------| x 6 
D:|---------------------------------------------------------------------|                  
A:|----------------------------------------3-3333333333333--------------| 
E:|-5-555555555555555-1-111111111111111111-----------------3-333333333--| 


     Ver la tierra baņada de sol, respirar aire de las alturas, 
G:|---------------------------------------------------------------------| x 2 
D:|---------------------------------------------------------------------|                  
A:|-55555555555555-----------------------3333333333333333333------------| 
E:|----------------111111111111111111111---------------------33333333333|  



    ya qe vas a escribir dijo, cuenta de mi pueblo. 
G:|---------------------------------------------------------------------| x 4 
D:|---------------------------------------------------------------------|                  
A:|----------------------------------------333333333333333--------------| 
E:|-55555555555555555-11111111111111111111-----------------33333333333--| 


DURANTE EL SOLO DE ARMONICA: 

G:|---------------------------------------------------------------------| x 4 o mas veces 
D:|---------------------------------------------------------------------|                  
A:|----------------------------------------3-3333333333333--------------| 
E:|-5-555555555555555-1-111111111111111111-----------------3-333333333--| 



Final 



G:|----------------------| 
D:|----------------------|                  
A:|----------------------| 
E:|-------------------5-5| 
	  

Search Paypal
auto scroll beats size up size down change color hide chords drawings
tab show chords e-chords YouTube Clip e-chords hide all tabs e-chords go to top tab