La renga

home > La renga

Cortarla Y Olvidarla Bass Tab

La renga

Difficulty: ExpertExpert

by bombaXXX

tuner correct add songbook print version text version save to e-mail
chordsukulelecavacokeyboardtabbassdrumsharmonicsflute Guitar Pro
chords

Cortarla Y Olvidarla

(Gustavo Napoli)

  		Intro (Empieza la guitarra y la bateria y despues de 7  
segundos empieza el bajo) 

G--------------------------------------- 
D--------------------------------------- 
A--------------------------------------- 
E----7---2------7----2------------------ 
  
(Despues de rulo de la bateria hace lo mismo pero con LA en  
el medio, y mas rapido) 

G----------------------------------- 
D----------------------------------- 
A----------------------------------- 
E---7--7-5-7-5---2-2-2-2-2-2-2------(x4) 
  
No lo puedo evitar............... 

G------------------------------------------- 
D------------------------------------------- 
A--------------------------5-7-7-7-7-7-7-7-- 
E----5-5-5-5-5-5-5-5-7----------------------(x4) 

Porque es mi herida............ 

G----------------------------------- 
D----------------------------------- 
A----------------------------------- 
E---7--7-5-7-5---2-2-2-2-2-2-2------(x4) 

G------------------------------------------------ 
D------------------------------------------------ 
A------------------------------------------------ 
E--2--2-2-3--3-3-4--4-4-5--5-5--7-7-7-7-7-7-7---- 

Estribillo: 
Como un ciego.............(Riff) 

G------------------------------------------------ 
D------------------------------------------------ 
A--7--7-7-7-7-7-7-------------------------------- 
E------------------5--5-5-5-5-5-5--7-7-7-7-7-7-7- 

Alas de mariposa..................... 

G------------------------------------------ 
D------------------------------------------ 
A-----------------5-5-5------7-7-7--------- 
E------------------------------------------ 

Como un ciego al fuego quiero ir...............(igual  
que el Riff de arriba) 




Y ese fuego ya no es para mi....... 

G---------------------------------------- 
D---------------------------------------- 
A---------------------------------------- 
E-----8--8-8-7--7-7-5-5-5-5-5-5-5-------- 

Solo de guitarra 

G---------------------------------------------------- 
D---------------------------------------------------- 
A------------------------------------7-7-7-7-7-7-7-7- 
E---5-----5-------5-5-5-5-5-5-5----------------------(x4) 

Y despues de este Riff hace lo mismo que en el Intro 

G----------------------------------- 
D----------------------------------- 
A----------------------------------- 
E---7--7-5-7-5---2-2-2-2-2-2-2------(x4) 

G----------------------------------------------- 
D----------------------------------------------- 
A----------------------------------------------- 
E--2--2-2-3--3-3-4--4-4-5--5-5--7-7-7-7-7-7-7--- 

Estribillo 

Final 

G-------------------------------------------------------- 
D-------------------------------5--5h7--7-5---5h7-5------ 
A--7-7-7-7-7-7--------------------7---------7--------7-5- 
E-----------------5-5-5-5-5-5----------------------------(x2) 

G----------------------------------------------- 
D----------------------------------------------- 
A--------------------0h7--7-7-7-7--------------- 
E-7-7-7-7-7-7-7-7-7----------------5-5-5-7-7-7--(x4) 

G----------------------------------- 
D----------------------------------- 
A--7-----7------7-----------5-7----- 
E----5-7---5-7---5-7---7------------
	  

Search Paypal
auto scroll beats size up size down change color hide chords drawings
tab show chords e-chords YouTube Clip e-chords hide all tabs e-chords go to top tab