La Quinta Estacion

El sol no regresa

La Quinta Estacion

bass Intermediate intermediate

by  KAKALZINHA

save to print version add songbook text version e-mail correct tuner
chordsukulelecavacokeyboardtabbassdrumsharmonicaflute Guitar Pro
close

there isn't a video lesson for this song

chords

El sol no regresa

	  		F#------------------|----------------------|----------------------| 
C#------------------|----------------------|----------------------| 
G#------------------|----------------------|----------------------| 
D#------------17/---|--5--------5--5----5--|--7--------7--7----7--| 
A#------------------|----------------------|----------------------| 

Esta primera nota de slide se inicia con el tom de la bateria, al 
mismo tiempo 
                                                                        
-----------------------|-----------------------|----------------------| 
-----------------------|-----------------------|----------------------| 
--7--------7--7--------|--4--------4--4--6--7--|----------------------| 
-----------------4--7--|-----------------------|--5--------5--5----5--| 
-----------------------|-----------------------|----------------------| 


                                                                  
----------------------|---------------------|-------------------| 
----------------------|---------------------|-------------------| 
----------------------|---------------------|-------------------| 
--7--------7--7----7--|--------------5------|-------------------| 
----------------------|--5--------5---------|--5----------------| 


                                                                      
----------------------|----------------------|----------------------| 
----------------------|----------------------|----------------------| 
----------------------|----------------------|----------------------| 
-------------------7--|-------------------4--|--5--------5--5----4--| 
--5--------5--5-------|--5--------5--5-------|----------------------| 


                                                                      
----------------------|----------------------|----------------------| 
----------------------|----------------------|----------------------| 
----------------------|----------------------|----------------------| 
--5--------5--5----5--|--7--------7--7----4--|--5--------5--5----5--| 
----------------------|----------------------|----------------------| 


                                                                     
---------------------|----------------------|----------------------| 
---------------------|----------------------|----------------------| 
---------------------|----------------------|----------------------| 
--------------5------|-------------------7--|-------------------7--| 
--5--------5---------|--5--------5--5-------|--5--------5--5-------| 


                                                                      
----------------------|----------------------|----------------------| 
----------------------|----------------------|----------------------| 
----------------------|----------------------|----------------------| 
-------------------4--|--5--------5--5----4--|--5--------5--5----5--| 
--5--------5--5-------|----------------------|----------------------| 


                                                                     
----------------------|----------------------|---------------------| 
----------------------|----------------------|---------------------| 
----------------------|----------------------|---------------------| 
--7--------7--7----4--|--5--------5--5----5--|-----------7r--------| 
----------------------|----------------------|--5-------------7b---| 

los bends de estas notas los pueden hacer como slides, como les salga mejor 

                                                                              
---------------------|-------------------------|--------------------------| 
---------------------|-------------------------|--------------------------| 
---------------------|-------------------------|--------------------------| 
------------------4--|--5--5--5--5--5--5--5----|--7--7--7--7--7--7--7--7--| 
-5--------5--5-------|-----------------------7-|--------------------------| 


                                                       
--------------------------|--------------------------| 
--------------------------|--------------------------| 
--7--7--7--7--7--7-----2--|--4--4--4--4--4--4--6--7--| 
--------------------4-----|--------------------------| 
--------------------------|--------------------------| 


                                                       
--------------------------|--------------------------| 
--------------------------|--------------------------| 
--------------------------|--------------------------| 
--5--5--5--5--5--5--5-----|--7--7--7--7--7--7--7--7--| 
-----------------------7--|--------------------------| 


                                                       
--------------------------|--------------------------| 
--------------------------|--------------------------| 
--------------------------|--------6--7--------------| 
--------------------------|-----------------------4--| 
--5--5--5--5--5--5--5--5--|--5--5--------5--5--5-----| 


                                                       
--------------------------|--------------------------| 
--------------------------|--------------------------| 
--------------------------|--------------------------| 
--5--5--5--5--5--5--5-----|--7--7--7--7--7--7--7--7--| 
-----------------------7--|--------------------------| 


                                                       
--------------------------|--------------------------| 
--------------------------|--------------------------| 
--4--4--4--4--4--4-----2--|--4--4--4--4--4--4--6--7--| 
--------------------4-----|--------------------------| 
--------------------------|--------------------------| 


                                                                                
------------------------|--------------------------|-----------------------| 
------------------------|--------------------------|-----------------------| 
------------------------|--------------------------|-----------------------| 
-5--5--5--5--5--5--5----|--7--7--7--7--7--7--7--7--|-----------------5-----| 
----------------------7-|--------------------------|--5--5--5--5--5--------| 

Aqui finaliza el coro y la secuencia es la misma partiendo del 
verso 

                                                                     
---------------------|----------------------|----------------------| 
---------------------|----------------------|----------------------| 
---------------------|----------------------|----------------------| 
---------------------|-------------------7--|-------------------4--| 
--5--------5--5------|--5--------5--5-------|--5--------5--5-------| 


                                                                      
----------------------|----------------------|----------------------| 
----------------------|----------------------|----------------------| 
----------------------|----------------------|----------------------| 
--5--------5--5----4--|--5--------5--5----5--|--7--------7--7----4--| 
----------------------|----------------------|----------------------| 


                                                                     
----------------------|---------------------|----------------------| 
----------------------|---------------------|----------------------| 
----------------------|---------------------|----------------------| 
--5--------5--5----5--|--------------5------|-------------------7--| 
----------------------|--5--------5---------|--5--------5--5-------| 


                                                                      
----------------------|----------------------|----------------------| 
----------------------|----------------------|----------------------| 
----------------------|----------------------|----------------------| 
-------------------7--|-------------------4--|--5--------5--5----4--| 
--5--------5--5-------|--5--------5--5-------|----------------------| 


                                                                      
----------------------|----------------------|----------------------| 
----------------------|----------------------|----------------------| 
----------------------|----------------------|----------------------| 
--5--------5--5----5--|--7--------7--7----4--|--5--------5--5----5--| 
----------------------|----------------------|----------------------| 


                                                                         
---------------------|----------------------|--------------------------| 
---------------------|----------------------|--------------------------| 
---------------------|----------------------|--------------------------| 
-----------7r--------|-------------------4--|--5--5--5--5--5--5--5-----| 
--5-------------7b---|--5--------5--5-------|-----------------------7--| 


                                                       
--------------------------|--------------------------| 
--------------------------|--------------------------| 
--------------------------|--7--7--7--7--7--7-----2--| 
--7--7--7--7--7--7--7--7--|--------------------4-----| 
--------------------------|--------------------------| 


                                                       
--------------------------|--------------------------| 
--------------------------|--------------------------| 
--4--4--4--4--4--4--6--7--|--------------------------| 
--------------------------|--5--5--5--5--5--5--5-----| 
--------------------------|-----------------------7--| 


                                                       
--------------------------|--------------------------| 
--------------------------|--------------------------| 
--------------------------|--------------------------| 
--7--7--7--7--7--7--7--7--|--------------------------| 
--------------------------|--5--5--5--5--5--5--5--5--| 


                                                       
--------------------------|--------------------------| 
--------------------------|--------------------------| 
--------6--7--------------|--------------------------| 
-----------------------4--|--5--5--5--5--5--5--5-----| 
--5--5--------5--5--5-----|-----------------------7--| 


                                                       
--------------------------|--------------------------| 
--------------------------|--------------------------| 
--------------------------|--4--4--4--4--4--4-----2--| 
--7--7--7--7--7--7--7--7--|--------------------4-----| 
--------------------------|--------------------------| 


                                                       
--------------------------|--------------------------| 
--------------------------|--------------------------| 
--4--4--4--4--4--4--6--7--|--------------------------| 
--------------------------|--5--5--5--5--5--5--5-----| 
--------------------------|-----------------------7--| 


                                                       
--------------------------|--------------------------| 
--------------------------|--------------------------| 
--------------------------|--4--4--4--4--4--4-----2--| 
--7--7--7--7--7--7--7--7--|--------------------4-----| 
--------------------------|--------------------------| 


                                                       
--------------------------|--------------------------| 
--------------------------|--------------------------| 
--4--4--4--4--4--4--6--7--|--------------------------| 
--------------------------|--5--5--5--5--5--5--5-----| 
--------------------------|-----------------------7--| 


                                                       
--------------------------|--------------------------| 
--------------------------|--------------------------| 
--------------------------|--4--4--4--4--4--4-----2--| 
--7--7--7--7--7--7--7--7--|--------------------4-----| 
--------------------------|--------------------------| 


                                                       
--------------------------|--------------------------| 
--------------------------|--------------------------| 
--4--4--4--4--4--4--6--7--|--------------------------| 
--------------------------|--5--5--5--5--5--5--5-----| 
--------------------------|-----------------------7--| 


                                                                            
--------------------------|--------------------|--------------------------| 
--------------------------|--------------------|--------------------------| 
--------------------------|--------------------|--------------------------| 
--7--7--7--7--7--7--7--7--|--------------17/---|--5--5--5--5--5--5--5-----| 
--------------------------|--------------------|-----------------------7--| 


                                                       
--------------------------|--------------------------| 
--------------------------|--------------------------| 
--------------------------|--7--7--7--7--7--7-----2--| 
--7--7--7--7--7--7--7--7--|--------------------4-----| 
--------------------------|--------------------------| 


                                                       
--------------------------|--------------------------| 
--------------------------|--------------------------| 
--4--4--4--4--4--4--6--7--|--------------------------| 
--------------------------|--5--5--5--5--5--5--5-----| 
--------------------------|-----------------------7--| 


                                                       
--------------------------|--------------------------| 
--------------------------|--------------------------| 
--------------------------|--------------------------| 
--7--7--7--7--7--7--7--7--|--------------------------| 
--------------------------|--5--5--5--5--5--5--5--5--| 


                                                       
--------------------------|--------------------------| 
--------------------------|--------------------------| 
--------6--7--------------|--------------------------| 
-----------------------4--|--5--5--5--5--5--5--5-----| 
--5--5--------5--5--5-----|-----------------------7--| 


                                                       
--------------------------|--------------------------| 
--------------------------|--------------------------| 
--------------------------|--4--4--4--4--4--4-----2--| 
--7--7--7--7--7--7--7--7--|--------------------4-----| 
--------------------------|--------------------------| 


                                                       
--------------------------|--------------------------| 
--------------------------|--------------------------| 
--4--4--4--4--4--4--6--7--|--------------------------| 
--------------------------|--5--5--5--5--5--5--5-----| 
--------------------------|-----------------------7--| 


                                                       
--------------------------|--------------------------| 
--------------------------|--------------------------| 
--------------------------|--4--4--4--4--4--4-----2--| 
--7--7--7--7--7--7--7--7--|--------------------4-----| 
--------------------------|--------------------------| 


                                                                    
--------------------------|-------------------|-------------------| 
--------------------------|-------------------|-------------------| 
--4--4--4--4--4--4--6--7--|-------------------|-------------------| 
--------------------------|--5----------------|--7----------------| 
--------------------------|-------------------|-------------------| 


                                                                    
------------------|--------------------|--------------------------| 
------------------|--------------------|--------------------------| 
------------------|--------------------|--------------------------| 
------------------|--------------17/---|--5--5--5--5--5--5--5-----| 
------------------|--------------------|-----------------------7--| 

Este es el final de la cancion la ultima estrofa 
cheuquen los intervalos en la rola original 
                                                       
--------------------------|--------------------------| 
--------------------------|--------------------------| 
--------------------------|--7--7--7--7--7--7-----2--| 
--7--7--7--7--7--7--7--7--|--------------------4-----| 
--------------------------|--------------------------| 


                                                       
--------------------------|--------------------------| 
--------------------------|--------------------------| 
--4--4--4--4--4--4--6--7--|--------------------------| 
--------------------------|--5--5--5--5--5--5--5-----| 
--------------------------|-----------------------7--| 


                                                                        
--------------------------|----------------------|-------------------|| 
--------------------------|----------------------|-------------------|| 
--------------------------|----------------------|-------------------|| 
--7--7--7--7--7--7--7--7--|---------------5------|-------------------|| 
--------------------------|--5------5--5---------|--5----------------|| 
		  

auto scroll beats size up size down change color hide chords drawings
tab show chords e-chords YouTube Clip e-chords hide all tabs e-chords go to top tab

share