Kvelertak

Ordsmedar Av Rang

Kvelertak

bass

by  VSWORLD

save to print version add songbook text version e-mail correct tuner
chordsukulelecavacokeyboardtabbassdrumsharmonicaflute Guitar Pro
close

there isn't a video lesson for this song

chords

Ordsmedar Av Rang

	  		
Intro Bass Starts at 0:27 
G|---------------------------------------------------------------------------| 
D|---------------------------------------------------------------------------| 
A|----7-5----7-5----7-5---777777-333333-7------------------------------------| 
E|--00-----00-----00---------------------------------------------------------| 

Verse                                                                               
G|---------------------------------------------------------------------------|  
D|---------------------------------------------------------------------------| 
A|----7-5--7-5----------------7-5-7-5---------7-5--7-5-----------------------| 
E|--00----0----000000000000-00---0---000000000---0-----00000000--------------| 

G|-------------------------------------------------------------------------------|  
D|-------------------------------------------------------------------------------| 
A|------------7-5--7-5----------7-5--7-5--------7777777-3333333---7-5---7-5------| 
E|-00000000000---00---0000000000---00---00000000----------------00----00---0000--| 

Chorus 
G|---------------------------------------------------------------------------| x4 
D|---------------------------------------------------------------------------| 
A|7777-----------------------------------------------------------------------| 
E|----77-8888-77-8888-77-10-10-10-555----------------------------------------| 

Verse                                                                              
G|----------------------------------------------------|  
D|----------------------------------------------------| 
A|----7-5--7-5----------------7-5-7-5-----------------| 
E|--00----0----00000000000000---0---000000000--------| 

G|------------------------------------------------------------------------|  
D|------------------------------------------------------------------------| 
A|------------7-5--7-5----------7-5--7-5--------7777777-3333333-000-5555--| 
E|-00000000000---00---0000000000---00---00000000--------------------------| 

G|---------------------------------------------------------------------------| 
D|---------------------------------------------------------------------------| 
A|----7-5-7-5----------7-5-7-5------7----------------------------------------| 
E|0000---0---000000000---0---000000------------------------------------------| 

Until the outro 
G|---------------------------------------------------------------------------|  
D|---------------------------------------------------------------------------| 
A|7777-----------------------------------------------------------------------| 
E|----77-8888-77-8888-77-10-10-10-555----------------------------------------| 

Outro 
G|----------------------------------------------------------------------------|  
D|----------------------------------------------------------------------------| 
A|------------7-5--7-5----------7-5--7-5--------7777777-3333333-000-5555--7-5-| 
E|-00000000000---00---0000000000---00---00000000------------------------00----| 
		  

See also:

bass Kvelertak - Bruane Brenn bass Kvelertak - Sultans Of Satan bass Emperor - Thus Spake The Night Spirit bass Emperor - Thus Spake The Nightspirit bass Kvelertak - Offernatt bass Kvelertak - Ulvetid
e-chords

Other versions:

bass Kvelertak - Ordsmedar Av Rang
auto scroll beats size up size down change color hide chords drawings
tab show chords e-chords YouTube Clip e-chords hide all tabs e-chords go to top tab

share