Kreator

Storm Of The Beast

Kreator

bass

by  VELHO

save to print version add songbook text version e-mail correct tuner
chordsukulelecavacokeyboardtabbassdrumsharmonicaflute Guitar Pro
close

there isn't a video lesson for this song

chords

Storm Of The Beast

	  		Listen to the song for timing 

1a) Intro: 
G|-------------------------------------| 
D|--------------5-------------------7--| 
A|--x//--2------3--------x//-2------5--| 
E|--x//--0--000----------x//-0--000----| 
            ...                 ... 
1b) 
G|--------------------------------------------------------------| 
D|--------10------9------7----5-4-------10------9------7----10--| 
A|---------8------7------5----3-2--------8------7------5-----8--| 
E|--0-000-----000----000----0-----0-000-----000----000----0-----| 
    . ...     ...    ...    .     . ...     ...    ...    . 

2) Fill 1: Hit E5(022xxx) eight times 

3) Verse riff: 
G|---------------------------------------------------------------------| 
D|-------------------5-----3-----5-3--------------------------------3--| 
A|----------------------------------------------------3-----2-----3----| 
E|--3333333333333333---3-3---3-3-----0000000000000000---0-0---0-0------| 
    ................   . .   . .     ................   . .   . . . 

4) Pre-Chorus: 
G|---------------------------------------------| 
D|---------------------------------------------| 
A|--000000000000000000000000000000000000-5--4--| 
E|--....................................-3--2--| 

5) Fill 2: (repeat 2x) 
G|----------|---------|---------|---------| 
D|----------|---------|---------|---------| 
A|----------|---------|---------|---------| 
E|--0-0-0-0-|-0-0-0-0-|-0-0-0-0-|-0-0-0-0-| 
    . . . .   . . . .   . . . .   . . . . 

6) Chorus: 
G|------------------------------| 
D|--9----10-------10----9----7--| 
A|--7-----8--------8----7----5--| 
E|-----0--------------0----0----| 
       .              .    . 

7a) Post-Chorus: 
G|----------------------------------| 
D|---------------------4p2----------| 
A|--4-----4-----4----------4-2p0----| 
E|--2-22222-22222-2222-----------2--| 
      ....  ....  ....     .     . 
7b) 
G|---------------------4p2----------| 
D|--4-----4-----4----------4-2p0----| 
A|*| 
E|----....--....--....-----------.--| 

8) Fill 3: 
G|---------| 
D|---------| 
A|--5-4-5--| 
E|--3-2-3--| 

9) Solo rhytm:			   End with: 
G|-------------------------------| |-------------------| 
D|------------------5-5-5-4-4-4--| |--4-4-4-4-4-4-4-4--| 
A|------------------3-3-3-2-2-2--| |--2-2-2-2-2-2-2-2--| 
E|--2222222222222222-------------| |-------------------| 
    ................ 

Song ends with: 
G|------------| 
D|-------10/--| 
A|--------8/--| 
E|--0-000-----| 
    . ... 

END. 
		  

See also:

bass Kreator - Coma Of Souls bass Kreator - PEOPLE OF THE LIE bass Kreator - Rippin' Corpse bass Kreator - Bone Breaker bass Kreator - Command Of The Blade bass Kreator - Pleasure To Kill
e-chords

Other versions:

bass Kreator - Storm Of The Beast
auto scroll beats size up size down change color hide chords drawings
tab show chords e-chords YouTube Clip e-chords hide all tabs e-chords go to top tab

share