Kreator

Mental Slavery

Kreator

bass

by  VELHO

save to print version add songbook text version e-mail correct tuner
chordsukulelecavacokeyboardtabbassdrumsharmonicaflute Guitar Pro
close

there isn't a video lesson for this song

chords

Mental Slavery

	  		Rhythm Guitar Transcribed on Bass 
Tuning (Low - High):  E A D G 


A      		  {1,3,5} 			        {2}                
|------------------------------------------------|-----------------| 
|-----1-2-1--------------------------------------|-3---------------| 
|-2h3-------2----2-------------------------------|-1---------------| 
|-------------3--0-------------------------------|-----------------| 
      . . . . . 

        {4}               {6} 
|-3---------------|-5---------------| 
|-1---------------|-3---------------| 
|-----------------|-----------------| 
|-----------------|-----------------| 

B                                           Play 6 Times 
|-------------------------------------------------------| 
|-----1-2-1---------------------------------------------| 
|-2h3-------2---3------2------3-3-----2------5-5-----2--| 
|-------------3-1--0-0-0--0-0-1-1-0-0-0--0-0-3-3-0-0-0--| 
      . . . . .    . .    . .     . .    . .     . . 


Fill 1 
|---------------| 
|-----1-2-1-----| 
|-2h3-------2---| 
|-------------3-| 
      . . . . . 


C1 
|---------------------9-8------------------------------------------| 
|-------------------------10-9-----5---4---------------------------| 
|-4-----5-------10-10--------------3---2---2-------2-------2-------| 
|-2---0-3----------------------------------0---0-0-0---0-0-0---0-0-| 
      .         pm...                          . .     . .     . . 


C2 
|---------------------9-8------------------------------------------| 
|-------------------------10-9-----5---4-----------3-------2-------| 
|-4-----5-------10-10--------------3---2---2-------1-------0-------| 
|-2---0-3----------------------------------0---0-0-----------------| 
      .         pm...                          . .  


Repeat C1 

Fill 2 
|---------------------------------| 
|-----------------4---------------| 
|-5---------------2---------------| 
|-3-------------------------------| 
     


D									     
|-------------------------------------------------------------| 
|-------------------------------------------------------------| 
|-------------------------/6----------------------------------| 
|-0-0-0-0-0-0-0-0-0-0-0-0-/4--2-2-2-2-2-2-2-2-2-2-2-2-2-2-2-2-| 
  . . . . . . . . . . . .     . . . . . . . . . . . . . . . . 

					            Play 2 Times 
|--------------------------------------------------------------| 
|--------------------------------------------------------------| 
|-------------------------------------------------1-1-1-1-1-5-| 
|-1-1-1-1-1-1-1-1-1-1-1-1-1-1-1-1-0-0-0-0-0-0-0-0-----------3-| 
  . . . . . . . . . . . . . . . . . . . . . . . . . . . . . 


E        {1,3,5,7}            {2,6}    {4}                 {8} 
|---------------------------|-------|-------|---------------------------------| 
|---------------------------|-------|-------|---------------------------------| 
|-2-------2-------2-------2-|-8---3-|-9---5-|-4-4-4-4-4-4-4-4-4-4-4-4-4-4-4-4-| 
|-0---0-0-0---0-0-0---0-0-0-|-6---1-|-7---3-|-2-2-2-2-2-2-2-2-2-2-2-2-2-2-2-2-| 
      . .     . .     . .                       . . . . . . . . . . . . . . .  


Repeat C1, C2, C1, Fill 2 


F 
|-----------------------------------------------------------------| 
|-----------------------------------------------------------------| 
|-------------------------3-3-3-3-0-0-0-0-------------------------| 
|-0-0-0-0-3-3-3-3-1-1-1-1-----------------3-3-3-3-1-1-1-1-3-3-3-3-| 
  . . . . . . . . . . . . . . . . . . . . . . . . . . . . . . . .  


Repeat D, E, C1, C2, C1, Fill 2 


G1 
|-----------------------------------------------------/7---75-----| 
|-------------3-------------------------------3-----3-/5---53-----| 
|-2-----------1-------------------2-----------1-----1--------------| 
|-0---0-0-1-0-------1-1-1-1-1-1-1-0---0-0-1-0----------------------| 
      . . . .       . . . . . . .     . . . . 


G2 
|------------------------------------------------------------------| 
|-------------3-------------------------------7--------------------| 
|-2-----------1-------------------2-----------5-----7---8---5-----| 
|-0---0-0-1-0-------1-1-1-1-1-1-1-0---0-0-1-0-------5---6---3-----| 
      . . . .       . . . . . . .     . . . . 


Repeat G1 & G2 


H (under solo 1)                                       Play 6 Times 
|-----------------------------------------------------------------| 
|---------------------------------5-------5-------5-------5---4---| 
|-4-------4-------4-------7---5---3---3-3-3---3-3-3---3-3-3---2---| 
|-2---2-2-2---2-2-2---2-2-5---3-----------------------------------| 
      . .     . .     . .             . .     . .     . . 


I1 (under solo 2) 
|-------------3-------------------------------3-----5-----6-------| 
|-2-----------1-------------------2-----------1-----3-----4-------| 
|-0---0-0-1-0-------1-1-1-1-1-1-1-0---0-0-1-0----------------------| 
|------------------------------------------------------------------| 
      . . . .       . . . . . . .     . . . . 


I2 (under solo 2) 
|-------------3-------------------------------3--------------------| 
|-2-----------1-------------------2-----------1-----7---8---5-----| 
|-0---0-0-1-0-------1-1-1-1-1-1-1-0---0-0-1-0-------5---6---3-----| 
|------------------------------------------------------------------| 
      . . . .       . . . . . . .     . . . . 


Repeat G1 & G2 (under solo 3) 


J1			 Play twice 
|---------------------------------| 
|-------7-------7-------7-------5-| 
|---7-8-----7-8-----7-8-----5-6---| 
|-0-------0-------0-------0-------| 
  . . . . . . . . . . . . . . . . 


J2			 Play twice 
|---------------------------------| 
|-------5-------5-------5-5---4---| 
|-0-5-6---0-5-6---0-5-6-----4---3-| 
|---------------------------------| 
  . . . . . . . . . . . .    


Repeat J1 x 2, J2 x 2 


Fill 3											   Guitar 1 
|-------------------------9-----------------------------------------------------------------------| 
|-2-----------------------9-----------------------2-----------------------9-----------------------| 
|-2-----------------------7-----------------------2-----------------------7-----------------------| 
|-0---------------000---0-----------------000---0-0---------------000---0-----------------000---0-| 
|                 ...   .                 ...   .                 ...   .                 ...   . 
|											   Guitar 2 
|-------------------------9-----------------------12----------------------------------------------| 
|-2-----------------------9-----------------------12----------------------9-----------------------| 
|-2-----------------------7-----------------------10----------------------7-----------------------| 
|-0---------------000---0-----------------000---0-----------------000---0-----------------000---0-| 
                  ...   .                 ...   .                 ...   .                 ...   . 


K1 (both guitars) 
|-----------------------------------------------------------------| 
|-9---------------8-------------------------------6---------------| 
|-7---------------6---------------2---------------4---------------| 
|-------------------------4-4-4-4-0-----------------------3-3-3-3-| 
                          . . . .                         . . . . 


K2                 				       Play 2 times 
|-----------------------------------------------------------------| 
|-----------------8-------------------------------6---------------| 
|-2---------------6---------------2---------------4---------------| 
|-0-----------------------4-4-4-4-0-----------------------3-3-3-3-| 
                          . . . .                         . . . . 

K3 
|-----------------------------------------------------------------| 
|-----------------8-----------------------------------------------| 
|-2---------------6---------------2---------------4-4-4-4-4-4-4-4-| 
|-0-----------------------4-4-4-4-0-------------------------------| 
                          . . . .                 . . . . . . . . 


Repeat G1+G2 


Fill 4 
|---------------------------------|-----------------| 
|---------------------------------|-3---------------| 
|-2-------------------------------|-1---------------| 
|-0-------------------------------|-----------------| 
  

A'                     {1,3}                            {2}                {4} 
|------------------------------------------------|-3---------------|-5---------------| 
|-----1-2-1--------------------------------------|-1---------------|-3---------------| 
|-2h3-------2----2-------------------------------|-----------------|-----------------| 
|-------------3--0-------------------------------|-----------------|-----------------| 
      . . . . . 


Repeat B x 6, F  


F' 
|-----------------------------------------------------------------------------------------| 
|-----------------------------------------------------------------------------------------| 
|-------------------------3-3-3-3-0-0-0-0-----------------5-------------------------------| 
|-0-0-0-0-3-3-3-3-1-1-1-1-----------------3-3-3-3-1-1-1-1-3-------------------------------| 
  . . . . . . . . . . . . . . . . . . . . . . . . . . . .   


Outro 
|-----------------3-2-0-------------3-------------------------------| 
|-----1-2-1-------------3-2-0-------3-------------------------------| 
|-2h3-------2-----------------3-2---1-------------------------------| 
|-------------3-----------------------------------------------------| 
      . . . . .   . . . . . . . . 

|-------------------------7---------------8-------------------| 
|-3-------5-------5-------7-------7-------8-------------------| 
|-3-------3-------5-------5-------7-------6-------8---7---5---| 
|-1-------3-------3---------------5---------------6---5---3---| 
                                                  .   .   . 

|----------------------------------------| 
|-2--------------------------------2----| 
|-2--------------------------------2----| 
|-0---------------0"---------------0----| 



Erik & Lal 
--------------------------- 
* 
* 
		  

See also:

bass Kreator - Coma Of Souls bass Kreator - PEOPLE OF THE LIE bass Kreator - Rippin' Corpse bass Kreator - Bone Breaker bass Kreator - Command Of The Blade bass Kreator - Pleasure To Kill
e-chords

Other versions:

bass Kreator - Mental Slavery
auto scroll beats size up size down change color hide chords drawings
tab show chords e-chords YouTube Clip e-chords hide all tabs e-chords go to top tab

share