Kreator

Coma Of Souls

Kreator

bass Easy easy

by  VELHO

save to print version add songbook text version e-mail correct tuner
chordsukulelecavacokeyboardtabbassdrumsharmonicaflute Guitar Pro
close

there isn't a video lesson for this song

chords

Coma Of Souls

Year: 1991 - Album: Enemy of God Revisited (CD/DVD)

	  		PART 1 
|---------------------------------------------------| 
|---------------------------------------------------| 
|-------------------------------------------5-4-3---| 
|-65-3-3-00-0-0-0-0-0---65-3-3-0-------------------| 

PART 2 
|-----------------------------------| 
|-----------------------------------| 
|-----------------------------------| 
|-0-------------------------------0-| 

PART 3a                            PART 3b 
|----------------------------|     |-----------------------| 
|----------------------------|     |-----------------------| 
|-----5h6--3h4--------8------|     |------5h7----3------8--| 
|0----------------7h8--------|     |--000-----00---7h8-----| 

PART 3c                                         
|-------------------------------------------| |-------------------------------------------| 
|-------------------------------------------| |-------------------------------------------| 
|----5h6---3h4------------------------------| |-----5h6---3h4-----------------------------| 
|-00-----0------0-7h8-0-0-0-0-0-0-0---------| |-00------0------0-7h8-8-8-8-8-8-8-8--------| 


PART 4a 
|-------------------------------------------------------------------------------------------------| 
|-------------------------------------------------------------------------------------------------| 
|-------------------------------------------------------------------------------------------------| 
|-33-3-3-/-55-5-5-/-33-3-3-/-77-7-7-/-66-6-6-/-88-8-8-/-66-6-6-----------------------------| 

PART 4b 
|---------------------------------------------------------| 
|----------------------------------------------3-2----2---| 
|---------------------------------------------------3-----| 
|-2-2-2-2-2-2-0-0-0-0-0-0-2-2-2-2-2-2---------------------| 

PART 5a 
|------------------------------------| 
|------------------------------------|  
|------------------------------------| 
|-0-0-0-0-0-0-0-1-1-1-1-1-1-1--------| 

PART 5b 
|-------------------------------------------| 
|-------------------------------------------| 
|-------------------------------------------| 
|-2-2-2-2-2-/-4-4-4-4-4-/-6-6-6-6-6---------| 

PART 6a                                              
|-----------------------------------------------| |----------------------------------------------------| 
|-----------------------------------------------| |-------------------------9-8-7----------------------| 
|-----------------------------------------------| | --------------------------------9-8-7--------------| 
|-0-0-0-0-/-3-3-3-3-/-9-9-9-9-/-4-4-4-4---------| |-0-0-0-0-/-3-3-3-3-/--------------------9-8-7-6-----| 


TIMINGS 
PART 1  x 6 
PART 2  x 1 
PART 3  x 4 
PART 3b  x 4 
PART 3c  x 4 
PART 4a x 1 
PART 4b x 2 
PART 2 x 1 
PART 3a x 4 
PART 3c x 4 
PART 4a  x 1 
PART 4b x 2 
PART 5a x 4 
PART 5b x 4 
PART 6  x 4 
PART 1  x 6 
		  

See also:

bass Kreator - Bone Breaker bass Kreator - Living In Fear bass Kreator - Servant in Heaven / King in Hell bass Kreator - Endorama bass Kreator - Coma Of Souls bass Kreator - Command Of The Blade
e-chords

Other versions:

bass Kreator - Coma Of Souls
auto scroll beats size up size down change color hide chords drawings
tab show chords e-chords YouTube Clip e-chords hide all tabs e-chords go to top tab

share