Kreator

home > Kreator

Bone Breaker Bass Tab

Kreator

Difficulty: nolevelnolevel

by VELHO

tuner correct add songbook print version text version save to e-mail
chordsukulelecavacokeyboardtabbassdrumsharmonicsflute Guitar Pro
chords

Bone Breaker

  		Standard tuning: EADGBe 

Also it's one of the most amusing, you just can't take 
But it's not a bad song, quite fun to play actually. 

Main riff: 
G|-----------------------------| 
D|--7--5-7--5-7-5-7--5-7--5-7--| 
A|--7--5-7--5-7-5-7--5-7--5-5--| 
E|-----------------------------| 
 |rhytm gtr: 
G|-----------------------------| 
D|----------------------7-7-7--| 
A|--7-------------------5-5-5--| 
E|--5--------------------------| 

Verse riff: 
G|------------------------------------| 
D|------------------------------------| 
A|--3---------------5-----------------| 
E|--11111111111111113333333333333333--| 
     ............... ............... 

Verse riff2: 
G|--------------------------------------------------------------------| 
D|----------------------------------3---------------5-----------------| 
A|--3---------------5---------------1-111111111111113-33333333333333--| 
E|--1-111111111111113-33333333333333----------------------------------| 
      ..............  ..............  ..............  ............... 

Chorus: 
G|---------------------------------------------------------------| 
D|--4---------------5---------------4---------------7-7-7-7-7-7--| 
A|--2-222222222222223-333333333333332-222222222222225-5-5-5-5-5--| 
E|----..............--..............--..............-------------| 

Ending: 
(tremolo pick for a while, 
then strike the chord once) 
G|-----| 
D|--4--| 
A|--2--| 
E|-----| 

LYRICS: 
I don't understand the whole of it, but the Chorus goes: 

Bone breaker, he'll take your life 
Bone breaker, he'll rip out your heart 
Bone breaker, he's the death 
Bone breaker!!! 

END. 
	  

Search Paypal
auto scroll beats size up size down change color hide chords drawings
tab show chords e-chords YouTube Clip e-chords hide all tabs e-chords go to top tab