Kool & The Gang

Celebration

Kool & The Gang

bass Expert expert

by  EUROPEU

save to print version add songbook text version e-mail correct tuner
chordsukulelecavacokeyboardtabbassdrumsharmonicaflute Guitar Pro
close

there isn't a video lesson for this song

chords

Celebration

	  		
Intro: 

G|---------------------------------| 
D|---------------------------------| 
A|---------------------------------| 
E|--1-1--2-2--1--2--1--4-4--4-4-4--| 

Verse: 

G|---------------------------| 
D|---------------------------| 
A|---------------------------| 
E|--4-4-4-4-4--4--4-4-4--4-4-| 

Bridge: 

G|-----------------------------------------------------| 
D|-----------------------------------------------------| 
A|--4-4-4-4-4--4--3-3-3--3-3---------------------------| 
E|----------------------------1-1-1-1-1--1--1-1-1--1-1-| 

G|----------------------------| 
D|----------------------------| 
A|--1-1-1-1-1--1--6-6--6-6-6--| 
E|----------------------------| 



		  

auto scroll beats size up size down change color hide chords drawings
tab show chords e-chords YouTube Clip e-chords hide all tabs e-chords go to top tab

share