Klaus mit Foch

home > Klaus mit Foch

S?ony Bass Tab

Klaus mit Foch

Difficulty: nolevelnolevel

by renejunior

tuner correct add songbook print version text version save to e-mail
chordsukulelecavacokeyboardtabbassdrumsharmonicsflute Guitar Pro
chords

S?ony

	  Intro 
(00:09) 
G|-------------| 
D|-------------| 
A|-------------| 
E|-10-/11-\10-8| 

G|--------------|--------------------|--------------|--------------------| (x4) 
D|--------------|--------------------|--------------|--------------------| 
A|--------------|--------------------|--------------|--------------------| 
E|-0-0--x-0-0--x|-0-0--x-10-/11-\10-8|-0-0--x-0-0--x|-0-0--x-10-/11-\10-8| 

verse 1/Pre-Chorus 
G|--------------|--------------------|--------------|--------------------| (x3) 
D|--------------|--------------------|--------------|--------------------| 
A|--------------|--------------------|--------------|--------------------| 
E|-0-0--x-0-0--x|-0-0--x-10-/11-\10-8|-0-0--x-0-0--x|-0-0--x-10-/11-\10-8| 

G|--------------|--------------------|--------------|------------|  
D|--------------|--------------------|--------------|------------| 
A|--------------|--------------------|--------------|------------| 
E|-0-0--x-0-0--x|-0-0--x-10-/11-\10-8|-0-0--x-0-0--x|-0-0--0-3---| 

Chorus 
G|--------------|--------------------|--------------|------------| (x4) 
D|--------------|--------------------|--------------|------------| 
A|--------------|--------------------|--------------|------------| 
E|-0-0--x-0-0--x|-0-0--x-10-/11-\10-8|-0-0--x-0-0--x|-0-0--0-3---| 

Interlude 
G|--------------|---------------|--------------|---------------| (x3) 
D|--------------|---------------|--------------|---------------| 
A|--------------|----------5---5|--------------|---------------| 
E|-0-0--x-0-0--x|-0-0--x-3---3--|-0-0--x-0-0--x|-0-0--x-0-3-3-3| 

G|--------------|---------------|--------------|--------------------|  
D|--------------|---------------|--------------|--------------------| 
A|--------------|----------5---5|--------------|--------------------| 
E|-0-0--x-0-0--x|-0-0--x-3---3--|-0-0--x-0-0--x|-0-0--x-10-/11-\10-8| 

verse 2/Pre-Chorus 
G|--------------|--------------------|--------------|--------------------| (x3) 
D|--------------|--------------------|--------------|--------------------| 
A|--------------|--------------------|--------------|--------------------| 
E|-0-0--x-0-0--x|-0-0--x-10-/11-\10-8|-0-0--x-0-0--x|-0-0--x-10-/11-\10-8| 

G|--------------|--------------------|--------------|------------|  
D|--------------|--------------------|--------------|------------| 
A|--------------|--------------------|--------------|------------| 
E|-0-0--x-0-0--x|-0-0--x-10-/11-\10-8|-0-0--x-0-0--x|-0-0--0-3---| 

Chorus 
G|--------------|--------------------|--------------|------------| (x4) 
D|--------------|--------------------|--------------|------------| 
A|--------------|--------------------|--------------|------------| 
E|-0-0--x-0-0--x|-0-0--x-10-/11-\10-8|-0-0--x-0-0--x|-0-0--0-3---| 

Interlude 
G|--------------|---------------|--------------|---------------| (x3) 
D|--------------|---------------|--------------|---------------| 
A|--------------|---------------|--------------|----------5---5| 
E|-0-0--x-0-0--x|-0-0--x-0-3-3-3|-0-0--x-0-0--x|-0-0--x-3---3--| 

G|--------------|---------------|--------------|--------------------|  
D|--------------|---------------|--------------|--------------------| 
A|--------------|---------------|--------------|--------------------| 
E|-0-0--x-0-0--x|-0-0--x-0-3-3-3|-0-0--x-0-0--x|-0-0--x-10-/11-\10-8| 

Chorus 
G|--------------|--------------------|--------------|------------| (x4) 
D|--------------|--------------------|--------------|------------| 
A|--------------|--------------------|--------------|------------| 
E|-0-0--x-0-0--x|-0-0--x-10-/11-\10-8|-0-0--x-0-0--x|-0-0--0-3---| 

Solo 
(02:56 ~ 03:10 - No Bass) 

(03:11) 
G|--------------|--------------------|--------------|--------------------|  
D|--------------|--------------------|--------------|--------------------| 
A|--------------|--------------------|--------------|--------------------| 
E|-0-0--x-0-0--x|-0-0--x-10-/11-\10-8|-0-0--x-0-0--x|-0-0--x-10-/11-\10-8| 

G|--------------|--------------------|--------------|---------------|  
D|--------------|--------------------|--------------|---------------| 
A|--------------|--------------------|--------------|---------------| 
E|-0-0--x-0-0--x|-0-0--x-10-/11-\10-8|-0-0--x-0-0--x|-0-0--x-0-3-3-3| 

G|--------------|---------------|--------------|---------------| 
D|--------------|---------------|--------------|---------------| 
A|--------------|----------5---5|--------------|---------------| 
E|-0-0--x-0-0--x|-0-0--x-3---3--|-0-0--x-0-0--x|-0-0--x-0-3-3-3| 

G|--------------|---------------|--------------|------------| 
D|--------------|---------------|--------------|------------| 
A|--------------|----------5---5|--------------|------------| 
E|-0-0--x-0-0--x|-0-0--x-3---3--|-0-0--x-0-0--x|-0-0--0-3---| 

Chorus/Outro 
G|--------------|--------------------|--------------|------------| (x4) 
D|--------------|--------------------|--------------|------------| 
A|--------------|--------------------|--------------|------------| 
E|-0-0--x-0-0--x|-0-0--x-10-/11-\10-8|-0-0--x-0-0--x|-0-0--0-3---| 

G|--| 
D|--| 
A|--| 
E|-5| 


***************************************** 

| / Slide Up 
| \ Slide Down 
| x Dead Note  

***************************************** 
	  

there isn't a video lesson for this song

request
Search Paypal
auto scroll beats size up size down change color hide chords drawings
tab show chords e-chords YouTube Clip e-chords hide all tabs e-chords go to top tab